Duniya - Lukka Chuppi Guitar Tabs by FUXiNO | Akhil | FX - MUSIC



E|-----------------------------------------------
B|--11-10-11-10-11------------------10---------------------10-
G|-------------------------10-10-10-12----12-12-10-12----
D|-----------------------------------------------
A|-----------------------------------------------
E|--------------------------------------------

E|--------------------------------------------
B|--11-10-11-10-11-------------10-10h/p11-10-------
G|------------------------10-10-10----------------------12-12-
D|--------------------------------------------
A|--------------------------------------------
E|--------------------------------------------

E|-------------------------------------------------
B|--11-10-11-10-11----------------------------13-11-10-
G|----------------------10-10-10-10-12----------
D|-----------------------------------------
A|-----------------------------------------
E|-----------------------------------------

E|--------------------------------------------
B|--11-10-11-10-11---------------10-10h/p11-10-------
G|--------------------------10-10-10-----------------------12-12-
D|--------------------------------------------
A|--------------------------------------------
E|--------------------------------------------

E|--11-10-11-10-11-----------10-10h/p11-10-------
B|-------------------------11-11-11------------------13-13-
G|--------------------------------------------
D|--------------------------------------------
A|--------------------------------------------
E|--------------------------------------------

E|--10----10----10----------------------------
B|------13----13----10-10-10-13-13h/p15-13-11-11-
G|--------------------------------------------
D|--------------------------------------------
A|--------------------------------------------
E|--------------------------------------------


E|--11-10-11-10-11---------------10-13-11-10----
B|-------------------------11-11-11-11----------------13-
G|--------------------------------------------
D|--------------------------------------------
A|--------------------------------------------
E|--------------------------------------------

E|--------------------------------------------
B|--13-13-13-13-13-13-10-10-13-13-13-13-11-11-
G|--------------------------------------------
D|--------------------------------------------
A|--------------------------------------------
E|--------------------------------------------



LEAD
E|-----------------------------------------------
B|--11-10-13-10-11-10----10-------11-10-13-10-11-
G|------------------------------12----10-12-----------
D|-----------------------------------------------
A|-----------------------------------------------
E|-----------------------------------------------

E|--------------------------------
B|--11-10-13-10-11-10----10-------
G|----------------------------12----10-12-
D|--------------------------------
A|--------------------------------
E|--------------------------------

E|--10----10-11-10-------------
B|-------13-----------13-11-10-11-
G|-----------------------------
D|-----------------------------
A|-----------------------------
E|-----------------------------

TUJHSE MERA...

E|--------13\15-13-13-11hp13-10-10----10-11-10-------------
B|--11-11---------------------------------------13------------------13-13-11-
G|--------------------------------------------
D|--------------------------------------------
A|--------------------------------------------
E|--------------------------------------------

E|--------13\15-13-13-11hp13-10-10----10-11-10-------------
B|--11-11---------------------------------------13----------------13-13-11-
G|--------------------------------------------
D|--------------------------------------------
A|--------------------------------------------
E|--------------------------------------------


E|--------------------------------------------------------------------
B|--13-11-11-13-13-11-13-13-11-13-13-13-13-13\15-15-13-11-10-10-11----
G|----------------------------------------------------------------------------------------------------------12-
D|--------------------------------------------------------------------
A|--------------------------------------------------------------------
E|--------------------------------------------------------------------


FEMALE PART

E|-----------------------------------------------
B|--11-10-11-10-11-------------------10----------------10-
G|--------------------------10-10-10-12----12-12-10-12----
D|-----------------------------------------------
A|-----------------------------------------------
E|-----------------------------------------------

E|--------------------------------------------
B|--11-10-11-10-11------------10-10hp11-10-------
G|---------------------------10-10-10-------------------12-12-
D|--------------------------------------------
A|--------------------------------------------
E|--------------------------------------------

E|-----------------------------------------------
B|--11-10-11-10-11---------------10----------------10-
G|-------------------------10-10-10-12----12-12-10-12----
D|-----------------------------------------------
A|-----------------------------------------------
E|-----------------------------------------------

E|--------------------------------------------
B|--11-10-11-10-11------------10-10hp11-10-------
G|-------------------------10-10-10-------------------12-12-
D|--------------------------------------------
A|--------------------------------------------
E|--------------------------------------------


HIGH PART

E|--13\15-15-15-13-13hp15-11-10----10------------------
B|-----------------------------------------------13----13-11-13-13\15-
G|---------------------------------------------------------------
D|---------------------------------------------------------------
A|---------------------------------------------------------------
E|----------------------------------------------------------------

E|--13\15-15-15-13-13hp15-11-10----10-------------
B|------------------------------------------------13----13-11-15-13-
G|-----------------------------------------------
D|-----------------------------------------------
A|-----------------------------------------------
E|-----------------------------------------------

E|--------------
B|--11-10----
G|-----------12-
D|-------------
A|-------------
E|--------------




LEAD
E|-----------------------------------------------
B|--11-10-13-10-11-10----10-------11-10-13-10-11-
G|----------------------------12----10-12----------------
D|-----------------------------------------------
A|-----------------------------------------------
E|-----------------------------------------------

E|--------------------------------
B|--11-10-13-10-11-10----10-------
G|-----------------------------12----10-12-
D|--------------------------------
A|--------------------------------
E|--------------------------------

E|--10----10-11-10-------------
B|-----13---------------13-11-10-11-
G|-----------------------------
D|-----------------------------
A|-----------------------------
E|-----------------------------


REPEAT ACCORDING TO SONG STRUCTURE.


if you have any doubt please leave your comment below.



Thank You.

#FUXiNO



Comments

  1. Bhai aap bahut achhe gaano par cover banate hai thank you so much aur aise badia covers banate raho aur hame sikhate rho

    ReplyDelete
  2. Bhai tum gzb ho
    Osm brooooo...

    ReplyDelete
  3. I m not able to understand the chords bro. How to play.

    ReplyDelete
  4. Boro tum to bawalllllllllll hooo..

    ReplyDelete
  5. Bro your song is the best!!!!! I found on the you tube .

    ReplyDelete
  6. Tabs up-down bajane hai kya?

    ReplyDelete
  7. Awesome dude thanks very much for this cover.

    ReplyDelete
  8. Great very very good...THANKS

    ReplyDelete
  9. This comment has been removed by the author.

    ReplyDelete

Post a Comment

Popular posts from this blog

Single String Guitar Songs Mashup - 10 Arijit Singh Songs | Easy One String Bollywood Hindi Songs Guitar Tabs

Tum Hi Aana Guitar Tabs with intro, Chords and Backing Track by Fuxino | Jubin Nautiyal | Marjaavaan | FxMusic

O Pata Nahi Ji Kaunsa Nasha Karta hai Guitar Tabs & Chords - Titliyan | Hardy Sandhu | Yaar Mera Titliyan Warga | Fx-Music | Fuxino