Posts

Showing posts from April, 2019

KALANK TITLE TRACK (THEME SONG) Guitar Tabs with Chords | FUXiNO | FX-MUSIC

Image
CHORD USED - A#,Gm,F#,D#   (Not Full Chords - only used chord in my video)
TABS (Only Notes Watch Above Video To Understand Effects e.g Bend,Slides.. etc)
E|--10-11-13-11-10-11\13------
B|-------------------------------------11-
G|--------------------------
D|--------------------------
A|--------------------------
E|--------------------------


E|---------------------------------
B|--11-13-14-13-11-13\14----
G|-------------------------------------11-
D|--------------------------
A|--------------------------
E|--------------------------

E|---------------------------10-
B|-----------11----------
G|--11-13------13-11----
D|--------------------
A|--------------------
E|--------------------

E|--------------------------
B|--13-11-13\14-13-13-11-11-
G|--------------------------
D|--------------------------
A|--------------------------
E|--------------------------


E|--10-11-13-11-10-11\13------
B|--------------------------------------11-
G|--------------------------
D|-------------------------…

I LOVE YOU - Bodyguard Guitar Tabs with Chords and Strumming by FUXiNO | FX-MUSIC

Image
NOTE - Watch This Video For Complete Understanding of my arrangements.




CHORDS - B,G#m,C#m,F#,E   (simplified Chords)

STRUMMINNG PATTERN -  D-UC - (DUDU)

(C=Chuck)
(DUDU) is muted strokes
It Takes Too Much Efforts and Time To Make Notes and Video.so if you want to donate something you can by clicking Donate Button Below



TABS
E|-----------------------------------------------------
B|--\4--------------------------------------------------
G|------6--4--6---6\8--8--6---6\8--6--4-----------------
D|-----------------------------------------------6--6--4---4\6--
A|-----------------------------------------------------
E|-----------------------------------------------------

E|--------------------------------------------------------
B|-----------------4b--4------------------7--7-----------------
G|---------4--6-----------6---6\8--8-----------8--8--6---6\8--
D|--\4--6--------------------------------------------------
A|--------------------------------------------------------
E|---------------------…

Baarish Yaariyan Guitar Chords, intro TABS and Strumming Pattern with Capo | FUXiNO | FX-MUSIC

Image
(Please Watch My YouTube Video For Better Understanding)intro TABSE|--10-11----10--------------------------------- B|-----------13----11-13-11-10---------10----- G|-------------------------------------10-12--------- D|------------------------------------------------- A|------------------------------------------------- E|--------------------------------------------------
E|-----------------10------------------------------------ B|--10-11-13----11-13-10-11-10----------------- G|--------------------------------------------12-10-10\12- D|----------------------------------------------------- A|---------------------------------------------------- E|----------------------------------------------------
It takes a lot of time and efforts to make these notes If you want to encourage me by donating something you can by clicking this Donate Button CHORDS Capo on 3rd Fret (Choose according to your vocal) Em,Am,C,D,B,Bm,G,A STRUMMING - DD-UU-DUD-(DU)*           (DU)* is Filler
PROGRESSIONS 1-Em>Am>D…