Baarish Yaariyan Guitar Chords, intro TABS and Strumming Pattern with Capo | FUXiNO | FX-MUSIC

(Please Watch My YouTube Video For Better Understanding)

intro TABS

E|--10-11----10---------------------------------
B|-----------13----11-13-11-10---------10-----
G|-------------------------------------10-12---------
D|-------------------------------------------------
A|-------------------------------------------------
E|--------------------------------------------------

E|-----------------10------------------------------------
B|--10-11-13----11-13-10-11-10-----------------
G|--------------------------------------------12-10-10\12-
D|-----------------------------------------------------
A|----------------------------------------------------
E|----------------------------------------------------

It takes a lot of time and efforts to make these notes If you want to encourage me by donating something you can by clicking this Donate Button CHORDS
Capo on 3rd Fret (Choose according to your vocal)
Em,Am,C,D,B,Bm,G,A
STRUMMING - DD-UU-DUD-(DU)*           (DU)* is Filler

PROGRESSIONS
1-Em>Am>D>Am>Bm>Em
2-Em>D>C>Am>B>Em(or C)
3-Em>D>A>C>D>Em
4-Em>D>A>C>G>Em
5-Bm>C..............B

(Em)Dil mera hai (Am)nasamajh (D)kitna
(Am)Besabr yeh (Bm)bevakoof (Em)bada

Chahta hai kitna tujhe
Khud magar nahi jaan saka

(Em)Is dard-e-dil ki sifarish 
Ab (D)kar de koi yahaan
Ke (C)mil jaye ise wo (Am)barish 
Jo bhiga(B) de poori (Em)tarah

Is dard-e-dil ki sifarish 
Ab kar de koi yahaan
Ke mil jaye ise wo barish 
Jo bhiga de poori tarah


(Em)Kya hua (D)asar tere (A)sath rahkar na jane
Ki (C)hosh (D)mujhe na (Em)raha

(Em)Lafz me (D)re (A)zubaan pe aake ruke
Par (C)ho na (G)sake wo (Em)bayaan



(Bm)Dhadkan tera hi (C)naam jale
(Bm)Aankhein bhi (C)paigaam yeh de
(Bm)Teri nazar kali yeh asar hai (B)mujhpe jo hua

(Em)Is dard-e-dil ki sifarish 
Ab (D)kar de koi yahaan
Ke (C)mil jaye ise wo (Am)barish 
Jo bhiga(B) de poori (Em)tarah

Is dard-e-dil ki sifarish 
Ab kar de koi yahaan
Ke mil jaye ise wo barish 
Jo bhiga de poori tarah


(Em)Tu jo (D)mila to (A)zindagi hai badli
Main (C)poora (D)naya ho (Em)gaya
(Em)Hain (D)beasar yeh (A)duniya ki baatein badi
Ab (C)teri (G)sunoon main (Em)sada

Hmm (Bm)milne ko tujhse (C)bahane karoon
(Bm)Tu muskuraaye (C)vajah main banoon
(Bm)Roz bitana sath mein tere (B)sara din mera


(Em)Is dard-e-dil ki sifarish 
Ab (D)kar de koi yahaan
Ke (C)mil jaye ise wo (Am)barish 
Jo bhiga(B) de poori (Em)tarah

Is dard-e-dil ki sifarish 
Ab kar de koi yahaan
Ke mil jaye ise wo barish 
Jo bhiga de poori tarah


If You Have any Doubts Please Let me know in comments Below.


#FUXiNO


Comments

Post a Comment

Popular posts from this blog

Single String Guitar Songs Mashup - 10 Arijit Singh Songs | Easy One String Bollywood Hindi Songs Guitar Tabs

Tum Hi Aana Guitar Tabs with intro, Chords and Backing Track by Fuxino | Jubin Nautiyal | Marjaavaan | FxMusic

O Pata Nahi Ji Kaunsa Nasha Karta hai Guitar Tabs & Chords - Titliyan | Hardy Sandhu | Yaar Mera Titliyan Warga | Fx-Music | Fuxino