I LOVE YOU - Bodyguard Guitar Tabs with Chords and Strumming by FUXiNO | FX-MUSIC


NOTE - Watch This Video For Complete Understanding of my arrangements.




CHORDS - B,G#m,C#m,F#,E   (simplified Chords)

STRUMMINNG PATTERN -  D-UC - (DUDU)

(C=Chuck)
(DUDU) is muted strokes
It Takes Too Much Efforts and Time To Make Notes and Video.so if you want to donate something you can by clicking Donate Button Below



TABS
E|-----------------------------------------------------
B|--\4--------------------------------------------------
G|------6--4--6---6\8--8--6---6\8--6--4-----------------
D|-----------------------------------------------6--6--4---4\6--
A|-----------------------------------------------------
E|-----------------------------------------------------

E|--------------------------------------------------------
B|-----------------4b--4------------------7--7-----------------
G|---------4--6-----------6---6\8--8-----------8--8--6---6\8--
D|--\4--6--------------------------------------------------
A|--------------------------------------------------------
E|--------------------------------------------------------

LEAD

E|-------------------------------------------4--------
B|--4--7--7--7--5---5\7--4---------------------7--7--
G|-----------------------------6--4--6--6-----------
D|-----------------------------------------------
A|-----------------------------------------------
E|-----------------------------------------------



E|------------------------------------------6\7--6--6--
B|--4--7--7--7--5---5\7--4--------------------------
G|--------------------------------6--4--6--6--------------
D|--------------------------------------------------
A|--------------------------------------------------
E|--------------------------------------------------


E|-----------------------------------------------------
B|--\4--------------------------------------------------
G|------6--4--6---6\8--8--6---6\8--6--4-----------------
D|-----------------------------------------------6--6--4---4\6--
A|-----------------------------------------------------
E|-----------------------------------------------------

E|--------------------------------------------------------
B|-----------------4b--4------------------7--7-----------------
G|---------4--6-----------6---6\8--8-----------8--8--6---6\8--
D|--\4--6--------------------------------------------------
A|--------------------------------------------------------
E|--------------------------------------------------------



E|--------------------------
B|--------------------------
G|----8--9--8--------------
D|----------------11-9---9\11-
A|--------------------------
E|--------------------------



E|--------------------------
B|--------------------------
G|--8--8--9--8--------------
D|--------------11-9---9\11-
A|--------------------------
E|--------------------------



E|--------------------------------------------
B|--------------------------------------------
G|--8--8--9--8-----------9--8-----------------
D|--------------11-9--9--------11-9--11--9\11-
A|--------------------------------------------
E|--------------------------------------------




E|-----------------------------------------------------
B|---------------4-----------4--------------4-----------------
G|------4--4-----6--4--4-----6--4--4-----6--4---4\6-----
D|--\6--------------------------------------------------
A|-----------------------------------------------------
E|-----------------------------------------------------

E|-----------------------------------------
B|-------------4-----------4-----------------
G|-----4--4-----6--4--4-----6--4--4--6--4--
D|--6--------------------------------------
A|-----------------------------------------
E|-----------------------------------------


LEAD

E|-------------------------------------------4--------
B|--4--7--7--7--5---5\7--4---------------------7--7--
G|-----------------------------6--4--6--6-----------
D|-----------------------------------------------
A|-----------------------------------------------
E|-----------------------------------------------



E|------------------------------------------6\7--6--6--
B|--4--7--7--7--5---5\7--4--------------------------
G|--------------------------------6--4--6--6--------------
D|--------------------------------------------------
A|--------------------------------------------------
E|--------------------------------------------------


E|-----------------------------------------------------------------------------------
B|-------------------7--5--4-----4--4--4--5--4hp5-----------------------------------------
G|--4--3--4--3--4-----------6-------------------------6--4--4--4--4--3--4--3-----------------
D|----------------------------------------------------------------------------------6--4--4\6-----
A|-----------------------------------------------------------------------------------
E|-----------------------------------------------------------------------------------

E|--------------
B|--5--4--------
G|--------6--4--
D|--------------
A|--------------
E|--------------

E|-----------------------------------------------------------------------------------
B|-------------------7--5--4-----4--4--4--5--4hp5-----------------------------------------
G|--4--3--4--3--4-----------6-------------------------6--4--4--4--4--3--4--3-----------------
D|----------------------------------------------------------------------------------6--4--4\6-----
A|-----------------------------------------------------------------------------------
E|-----------------------------------------------------------------------------------




E|-----------------
B|--4--5\7--7-----
G|---------------4--
D|-----------------
A|-----------------
E|-----------------

E|-----------------------
B|-----------------------
G|--4-4---6\8--8-----
D|--------------------6--
A|-----------------------
E|-----------------------


E|-----------------
B|--4--5\7--7-----
G|---------------4--
D|-----------------
A|-----------------
E|-----------------

E|-----------------------
B|-----------------------
G|--4-4---6\8--8-----
D|--------------------6--
A|-----------------------
E|-----------------------



E|-----------------------------------------
B|-----5--4-----------5--4-----------------
G|-----------6--4--4--------6--4--6--4--6--
D|--4--------------------------------------
A|-----------------------------------------
E|-----------------------------------------

E|-----------------------------------------------------------
B|-----5--4-----------5--4-----------5\7--7\9--7-----------
G|-----------6--4--4--------6--4--4-----------------8--6--4--
D|--4--------------------------------------------------------
A|-----------------------------------------------------------
E|-----------------------------------------------------------


E|-----------------------------------------------------
B|---------------4-----------4--------------4-----------------
G|------4--4-----6--4--4-----6--4--4-----6--4---4\6-----
D|--\6--------------------------------------------------
A|-----------------------------------------------------
E|-----------------------------------------------------

E|-----------------------------------------
B|-------------4-----------4-----------------
G|-----4--4-----6--4--4-----6--4--4--6--4--
D|--6--------------------------------------
A|-----------------------------------------
E|-----------------------------------------


E|-----------------------------------------------------
B|--\4--------------------------------------------------
G|------6--4--6---6\8--8--6---6\8--6--4-----------------
D|-----------------------------------------------6--6--4---4\6--
A|-----------------------------------------------------
E|-----------------------------------------------------

E|--------------------------------------------------------
B|-----------------4b--4------------------7--7-----------------
G|---------4--6-----------6---6\8--8-----------8--8--6---6\8--
D|--\4--6--------------------------------------------------
A|--------------------------------------------------------
E|--------------------------------------------------------



E|--------------------------
B|--------------------------
G|----8--9--8--------------
D|----------------11-9---9\11-
A|--------------------------
E|--------------------------



E|--------------------------
B|--------------------------
G|--8--8--9--8--------------
D|--------------11-9---9\11-
A|--------------------------
E|--------------------------



E|--------------------------------------------
B|--------------------------------------------
G|--8--8--9--8-----------9--8-----------------
D|--------------11-9--9--------11-9--11--9\11-
A|--------------------------------------------
E|--------------------------------------------




E|-----------------------------------------------------
B|---------------4-----------4--------------4-----------------
G|------4--4-----6--4--4-----6--4--4-----6--4---4\6-----
D|--\6--------------------------------------------------
A|-----------------------------------------------------
E|-----------------------------------------------------

E|-----------------------------------------
B|-------------4-----------4-----------------
G|-----4--4-----6--4--4-----6--4--4--6--4--
D|--6--------------------------------------
A|-----------------------------------------
E|-----------------------------------------


if you have any doubt feel free to ask me in comment section below.

Thank you.


#FUXiNO


Comments

  1. Bro, will same tabs work for acousti?

    ReplyDelete
    Replies
    1. Yes.. But it's tune would be different... I.e. of acoustic of course

      Delete
  2. I am not understanding your tabs. Please make a lesson on this song on guitar.

    ReplyDelete

Post a comment

Popular posts from this blog

Single String Guitar Songs Mashup - 10 Arijit Singh Songs | Easy One String Bollywood Hindi Songs Guitar Tabs

Tum Hi Aana Guitar Tabs with intro, Chords and Backing Track by Fuxino | Jubin Nautiyal | Marjaavaan | FxMusic

Tujhe Kitna Chahne Lage Hum Guitar Tabs Lesson w/ Cover & Chords | KABIR SINGH | FUXiNO