KALANK TITLE TRACK (THEME SONG) Guitar Tabs with Chords | FUXiNO | FX-MUSIC



CHORD USED - A#,Gm,F#,D#   (Not Full Chords - only used chord in my video)

TABS (Only Notes Watch Above Video To Understand Effects e.g Bend,Slides.. etc)

E|--10-11-13-11-10-11\13------
B|-------------------------------------11-
G|--------------------------
D|--------------------------
A|--------------------------
E|--------------------------


E|---------------------------------
B|--11-13-14-13-11-13\14----
G|-------------------------------------11-
D|--------------------------
A|--------------------------
E|--------------------------

E|---------------------------10-
B|-----------11----------
G|--11-13------13-11----
D|--------------------
A|--------------------
E|--------------------

E|--------------------------
B|--13-11-13\14-13-13-11-11-
G|--------------------------
D|--------------------------
A|--------------------------
E|--------------------------


E|--10-11-13-11-10-11\13------
B|--------------------------------------11-
G|--------------------------
D|--------------------------
A|--------------------------
E|--------------------------


E|---------------------------------
B|--11-13-14-13-11-13\14----
G|--------------------------------------11-
D|--------------------------
A|--------------------------
E|--------------------------

E|---------------------------10-
B|-----------11----------
G|--11-13------13-11----
D|--------------------
A|--------------------
E|--------------------

E|--------------------------
B|--13-11-13\14-13-13-11-11-
G|--------------------------
D|--------------------------
A|--------------------------
E|--------------------------


E|--10-11-13-11-10-11\13-13\15-
B|-----------------------------
G|-----------------------------
D|-----------------------------
A|-----------------------------
E|-----------------------------

E|--13----------------------
B|-----15-13-11-13\14-14\15-
G|--------------------------
D|--------------------------
A|--------------------------
E|--------------------------


E|--10-11-13-11-10-11\13-13\15-
B|-----------------------------
G|-----------------------------
D|-----------------------------
A|-----------------------------
E|-----------------------------

E|--13----------------------
B|-----15-13-11-13\14-14\15-
G|--------------------------
D|--------------------------
A|--------------------------
E|--------------------------



E|--10-11-13-11-10-11\13------
B|------------------------------------11-
G|--------------------------
D|--------------------------
A|--------------------------
E|--------------------------


E|---------------------------------
B|--11-13-14-13-11-13\14----
G|------------------------------------11-
D|--------------------------
A|--------------------------
E|--------------------------

E|--------------------------10-
B|-----------11----------
G|--11-13------13-11----
D|--------------------
A|--------------------
E|--------------------

E|--------------------------
B|--13-11-13\14-13-13-11-11-
G|--------------------------
D|--------------------------
A|--------------------------
E|--------------------------

E|--------------------------
B|--13-11-13\14-13-13-11-11-
G|--------------------------
D|--------------------------
A|--------------------------
E|--------------------------


#FUXiNO

Comments

  1. Really loving it awesome ♥

    ReplyDelete
  2. Bhai backing track kese download kare

    ReplyDelete
    Replies
    1. This comment has been removed by the author.

      Delete
    2. Fuzail bhai apna banatr hai backing track. We can do it on karyoke as bg track.

      Delete

Post a Comment

Popular posts from this blog

Tum Hi Aana Guitar Tabs with intro, Chords and Backing Track by Fuxino | Jubin Nautiyal | Marjaavaan | FxMusic

Happy Birthday Guitar Tabs on Single String for Beginners | Written Notes | Fx-Music

Rata Lambiya Guitar Tabs & Chords - Easy Hindi Guita Songs For Beginners | Shershah Songs | Jubin Nautiyal