Posts

Showing posts from June, 2019

BEKHAYALI GUITAR TABS & CHORDS by FUXiNO | ARIJIT SINGH | KABIR SINGH | FX-MUSIC

Image
WATCH MY VIDEO FOR BETTER UNDERSTANDING...

Chord Used - Am,G,F,Em,E,Dm,Dm7,Am7  (*Only Chord Used in My Video)

WATCH THIS BEKHAYALI CHORDS LESSON



STRUMMING - (watch above video for complete Strumming,intro and finger plucking) DD-DD  ( On Electric Guitar) DDDD    (On Electric Guitar)
IT TAKES A LOT OF TIME AND EFFORTS TO MAKE THESE VIDEOS AND NOTES. SO IF YOU WANT TO SUPPORT MY WORK YOU CAN BY DONATING ANYTHING YOU WANT (Click On This Button) Donate with
TABS
SYMBOLS (/) Slide Down (\) Slide Up   (h) Hammer On   (p) Pull Off   (x) Muted
E|--------------
B|-----13-12-15-
G|--14----------
D|--------------
A|--------------
E|--------------

E|--------------
B|-----13-12-15-
G|--14----------
D|--------------
A|--------------
E|--------------

E|-----------------------
B|-----13-12-------------
G|--14-------14-12-14\16-
D|-----------------------
A|-----------------------
E|-----------------------


E|--------------
B|-----13-12-15-
G|--14----------
D|--------------
A|--------------
E|--------------

E|--------------
B|-----13-12-1…

VAASTE GUITAR TABS,CHORDS with Backing Track by FUXiNO | FX-MUSIC

Image
WATCH MY VIDEO FOR BETTER UNDERSTANDING...

Chord Used - Capo on 5th Fret C,G,Am,F

STRUMMING - D-UDU-D-UDU-DD - (DU)*  Last (DU)* Stroke is filler
Backing Track is Available Below of This Post (Scroll Down)
TABS
SYMBOLS (/) Slide Down (\) Slide Up   (h) Hammer On   (p) Pull Off   (x) Muted

INTRO E|------------------------------------- B|--\6--6--6--6---6--6--6---6--6-- G|------------------------------------ D|------------------------------------- A|------------------------------------ E|------------------------------------

E|--------------------------------------- B|---6\8--8--8--8---8--8--8---8--8-- G|--------------------------------------- D|--------------------------------------- A|--------------------------------------- E|--------------------------------------- IT TAKES A-LOT OF TIME AND EFFORTS TO MAKE VIDEOS,BACKING TRACK AND THESE WRITTEN NOTES, SO IF YOU WANT TO ENCOURAGE ME YOU CAN BY DONATING ANYTHING (CLICK ON THIS PAYTM ICON) Donate with


E|---------------------------------------…

Slow motion song - Bharat Guitar Tabs and Chords by FUXiNO | FX-Music

Image
Chords Used in This Video
Dm,Gm,Am,C

intro riff  (easiest arrangement for beginners)

Tip - Use Palm Muting To Play This Intro Riff on your acoustic guitar

E|-----------------------------------------
B|-----------------------------------------
G|-----------------------------------------
D|--0--0--3--2--3--0--0--2-----0-------
A|---------------------------------3-------
E|-----------------------------------------


E|--------------------------------------
B|---------------------------------------
G|---------------------------------------
D|--0--0--3--2--3--0--0--2-----0-----
A|---------------------------------3-----
E|---------------------------------------