BEKHAYALI GUITAR TABS & CHORDS by FUXiNO | ARIJIT SINGH | KABIR SINGH | FX-MUSIC


WATCH MY VIDEO FOR BETTER UNDERSTANDING...


Chord Used - Am,G,F,Em,E,Dm,Dm7,Am7  (*Only Chord Used in My Video)


WATCH THIS BEKHAYALI CHORDS LESSON




STRUMMING - (watch above video for complete Strumming,intro and finger plucking)
DD-DD  ( On Electric Guitar)
DDDD    (On Electric Guitar)

IT TAKES A LOT OF TIME AND EFFORTS TO MAKE THESE VIDEOS AND NOTES. SO IF YOU WANT TO SUPPORT MY WORK YOU CAN BY DONATING ANYTHING YOU WANT (Click On This Button) Donate with

TABS

SYMBOLS 
(/) Slide Down
(\) Slide Up  
(h) Hammer On  
(p) Pull Off  
(x) Muted

E|--------------
B|-----13-12-15-
G|--14----------
D|--------------
A|--------------
E|--------------

E|--------------
B|-----13-12-15-
G|--14----------
D|--------------
A|--------------
E|--------------

E|-----------------------
B|-----13-12-------------
G|--14-------14-12-14\16-
D|-----------------------
A|-----------------------
E|-----------------------


E|--------------
B|-----13-12-15-
G|--14----------
D|--------------
A|--------------
E|--------------

E|--------------
B|-----13-12-15-
G|--14----------
D|--------------
A|--------------
E|--------------

E|-----------------------
B|-----13-12-------------
G|--14-------14-12-14\16-
D|-----------------------
A|-----------------------
E|-----------------------


E|----------------------12----
B|--13-12-------------------15-
G|--------12-12-14-------
D|-----------------------
A|-----------------------
E|-----------------------

E|-----12----
B|--------15-
G|--14-------
D|-----------
A|-----------
E|-----------

E|----------12----------------
B|---------------15-13-12-------
G|--14------------------------14\16-
D|-----------------------
A|-----------------------
E|-----------------------


E|-----------------12----
B|--13-12-------------15-
G|--------12-14-------
D|--------------------
A|--------------------
E|--------------------

E|-----12----
B|--------15-
G|--14-------
D|-----------
A|-----------
E|-----------

E|----------12-------------
B|---------------15-13-12----
G|--14------------------------14-
D|--------------------
A|--------------------
E|--------------------


E|--------------------------------------
B|--12\13-13-12-13-12-13-12-12\13-
G|--------------------------------------
D|--------------------------------------
A|--------------------------------------
E|--------------------------------------

E|--------------------------------------------------------------------
B|--13-12-13-12-13-13-13\15-15-13-15-13-15-15-15\17-15-13-13\15-13-12-
G|--------------------------------------------------------------------
D|--------------------------------------------------------------------
A|--------------------------------------------------------------------
E|--------------------------------------------------------------------


E|--------------------------------------
B|--12\13-13-12-13-12-13-12-12\13-
G|--------------------------------------
D|--------------------------------------
A|--------------------------------------
E|--------------------------------------

E|--------------------------------------------------------------------
B|--13-12-13-12-13-13-13\15-15-13-15-13-15-15-15\17-17-17-17-17
G|--------------------------------------------------------------------
D|--------------------------------------------------------------------
A|--------------------------------------------------------------------
E|--------------------------------------------------------------------


ELECTRIC GUITAR RIFF
E|------15-15\17-19-20-19/15-15h17-15h17-15----------------------
B|--17-------------------------------------------------------------18-17--
G|---------------------------------------------------------------------------
D|-------------------------------------------------------------------------
A|-------------------------------------------------------------------------
E|-------------------------------------------------------------------------

E|-------15-15\17-19-20-19-22--22⤴︎(1)⤵︎
B|--17-------------------------------------------------------
G|------------------------------------------------------------
D|------------------------------------------------------------
A|------------------------------------------------------------
E|------------------------------------------------------------

(if you don't have electric guitar simply play this easy riff on your acoustic guitar)


E|--0--3--3\5--7--8--7/3--3--3h5--3h5--3--1--0--
B|--------------------------------------------
G|--------------------------------------------
D|--------------------------------------------
A|--------------------------------------------
E|--------------------------------------------

E|--0--3--3\5--7--8--7--10--10\12-
B|--------------------------
G|--------------------------
D|--------------------------
A|--------------------------
E|--------------------------



Bekhayali......

E|--------------
B|-----13-12-15-
G|--14----------
D|--------------
A|--------------
E|--------------

E|--------------
B|-----13-12-15-
G|--14----------
D|--------------
A|--------------
E|--------------

E|-----------------------
B|-----13-12-------------
G|--14-------14-12-14\16-
D|-----------------------
A|-----------------------
E|-----------------------



E|--------------
B|-----13-12-15-
G|--14----------
D|--------------
A|--------------
E|--------------

E|--------------
B|-----13-12-15-
G|--14----------
D|--------------
A|--------------
E|--------------

E|-----------------------
B|-----13-12-------------
G|--14-------14-12-14\16-
D|-----------------------
A|-----------------------
E|-----------------------



E|---------------------12----
B|--13-12-----------------15-
G|--------12-12-14-------
D|-----------------------
A|-----------------------
E|-----------------------

E|-----12----
B|----------15-
G|--14-------
D|-----------
A|-----------
E|-----------

E|----------12----------------
B|---------------15-13-12-------
G|--14-14-------------------14\16-
D|-----------------------
A|-----------------------
E|-----------------------


E|--------------------12----
B|--13-12-----------------15-
G|-----------12-14-------
D|--------------------
A|--------------------
E|--------------------

E|-----12----
B|----------15-
G|--14-------
D|-----------
A|-----------
E|-----------

E|----------12-------------
B|---------------15-13-12----
G|--14-14--------------------14-
D|--------------------
A|--------------------
E|--------------------

Repeat TABS according to song structure.

Feel Free to ask your doubts in comment section below.


THANK YOU.

#FUXiNO






Comments

Post a Comment

Populer Posts

Despacito Guitar Tabs/Lead Lesson in Hindi | Luis Fonsi | Daddy Yankee | Justin Bieber

Channa Mereya-Ae dil hai mushkil Tabs with intro

O O JANE JANA GUITAR TABS SINGLE STRING AND MULTISTRING