Slow motion song - Bharat Guitar Tabs and Chords by FUXiNO | FX-Music


Chords Used in This Video
Dm,Gm,Am,C

intro riff  (easiest arrangement for beginners)

Tip - Use Palm Muting To Play This Intro Riff on your acoustic guitar

E|-----------------------------------------
B|-----------------------------------------
G|-----------------------------------------
D|--0--0--3--2--3--0--0--2-----0-------
A|---------------------------------3-------
E|-----------------------------------------


E|--------------------------------------
B|---------------------------------------
G|---------------------------------------
D|--0--0--3--2--3--0--0--2-----0-----
A|---------------------------------3-----
E|---------------------------------------





Comments

  1. Best channel to learn guitar
    Lovely song bro...

    ReplyDelete
  2. Post nagini song single string tabs

    ReplyDelete
  3. Sir can u please give me the tabs fr this song

    ReplyDelete
  4. sir please upload the full cover tabs... i think we can buy this... please sir upload kijiye

    ReplyDelete
  5. I really enjoyed reading this article, and found it quite informative. And especially the part about empress reverb. Thanks for sharing! I generally prefer The Rogue Guitar Shop to buy empress reverb and would recommend it to all.

    ReplyDelete
  6. sir only this much or what?

    ReplyDelete
  7. Send full tabs sir please 🙏

    ReplyDelete

Post a Comment

Popular posts from this blog

Tum Hi Aana Guitar Tabs with intro, Chords and Backing Track by Fuxino | Jubin Nautiyal | Marjaavaan | FxMusic

Happy Birthday Guitar Tabs on Single String for Beginners | Written Notes | Fx-Music

Rata Lambiya Guitar Tabs & Chords - Easy Hindi Guita Songs For Beginners | Shershah Songs | Jubin Nautiyal