VAASTE GUITAR TABS,CHORDS with Backing Track by FUXiNO | FX-MUSIC


WATCH MY VIDEO FOR BETTER UNDERSTANDING...


Chord Used - Capo on 5th Fret
C,G,Am,F


STRUMMING - D-UDU-D-UDU-DD - (DU)* 
Last (DU)* Stroke is filler

Backing Track is Available Below of This Post (Scroll Down)

TABS

SYMBOLS 
(/) Slide Down
(\) Slide Up  
(h) Hammer On  
(p) Pull Off  
(x) Muted


INTRO
E|-------------------------------------
B|--\6--6--6--6---6--6--6---6--6--
G|------------------------------------
D|-------------------------------------
A|------------------------------------
E|------------------------------------


E|---------------------------------------
B|---6\8--8--8--8---8--8--8---8--8--
G|---------------------------------------
D|---------------------------------------
A|---------------------------------------
E|---------------------------------------
IT TAKES A-LOT OF TIME AND EFFORTS TO MAKE VIDEOS,BACKING TRACK AND THESE WRITTEN NOTES, SO IF YOU WANT TO ENCOURAGE ME YOU CAN BY DONATING ANYTHING (CLICK ON THIS PAYTM ICON)
Donate with


E|---------------------------------------------
B|---8\10-10-10-10---10-10-10---10-10-
G|--------------------------------------------
D|--------------------------------------------
A|--------------------------------------------
E|--------------------------------------------

E|------------------------------------
B|--10\11-11-11-11---11-11-11--
G|------------------------------------
D|------------------------------------
A|------------------------------------
E|------------------------------------



E|-------------------------------------
B|--\6--6--6--6---6--6--6---6--6--
G|------------------------------------
D|-------------------------------------
A|------------------------------------
E|------------------------------------


E|---------------------------------------
B|---6\8--8--8--8---8--8--8---8--8--
G|---------------------------------------
D|---------------------------------------
A|---------------------------------------
E|---------------------------------------


E|-------------------------------------
B|--\6--6--6--6---6--6--6---6--6--
G|------------------------------------
D|-------------------------------------
A|------------------------------------
E|------------------------------------


E|---------------------------------------
B|---6\8--8--8--8---8--8--8---8--8--
G|---------------------------------------
D|---------------------------------------
A|---------------------------------------
E|---------------------------------------

E|---------------------------------------------
B|---8\10-10-10-10---10-10-10---10-10-
G|--------------------------------------------
D|--------------------------------------------
A|--------------------------------------------
E|--------------------------------------------

E|------------------------------------
B|--10\11-11-11-11---11-11-11--
G|------------------------------------
D|------------------------------------
A|------------------------------------
E|------------------------------------


MAIN SONG
Vaste
E|-----------------------------------------------
B|--13-11-10-13-11-10-13-11-10-------11\13-11-10-
G|-----------------------------------------------12-10-------------
D|-----------------------------------------------
A|-----------------------------------------------
E|-----------------------------------------------


E|--------------------------------------------
B|---------------10h11-10----------10----------------
G|--10-10-12--------------12-10------12-10-10-------
D|----------------------------------------------------------------10h12-
A|--------------------------------------------
E|--------------------------------------------

E|-----------------------------------------------
B|--13-13-11-10-13-11-10-13-11-10-----------11\13-11-10-
G|-------------------------------------------------------12-10-------------
D|-----------------------------------------------
A|-----------------------------------------------
E|-----------------------------------------------


E|--------------------------------------------
B|---------------10h11-10----------10----------------
G|--10-10-12--------------12-10------12-10-10-------
D|-----------------------------------------------------------------10h12-
A|--------------------------------------------
E|--------------------------------------------



E|-----------------------------
B|--10----10hp11-------------------
G|------12------------12-10-10-10-10-10-
D|-----------------------------
A|-----------------------------
E|-----------------------------

E|-----------------------------
B|--10----10hp11-------------------
G|------12------------12-10-10-10-10-10-
D|-----------------------------
A|-----------------------------
E|-----------------------------



E|--------------------------------------------
B|--10----10hp11----------------------------------13--13-13-13-
G|------12------------12-10-10-10-10-12-12-------------
D|--------------------------------------------
A|--------------------------------------------
E|--------------------------------------------


E|-----------------------------------------------
B|--13-11-10-13-11-10-13-11-10-------11\13-11-10-
G|----------------------------------------------12-10-------------
D|-----------------------------------------------
A|-----------------------------------------------
E|-----------------------------------------------


E|---------------------------------------------------------------
B|---------------10h11-10----------10-----------------------
G|--10-10-12--------------12-10------12-10-10------------
D|----------------------------------------------------------12\14--
A|---------------------------------------------------------------
E|---------------------------------------------------------------


E|--15(x)--15-12-------------------------13-13-
B|--------------------15--13h15--13h15-------
G|-------------------------------------------------
D|-------------------------------------------------
A|-------------------------------------------------
E|-------------------------------------------------


E|--15(x)--15-12-------------------------13-13-
B|--------------------15--13h15--13h15-------
G|-------------------------------------------------
D|-------------------------------------------------
A|-------------------------------------------------
E|-------------------------------------------------



E|--------------------------------------
B|--6(x)--6--6--5---5--6---6--8---8---6--6---5--
G|--------------------------------------
D|--------------------------------------
A|--------------------------------------
E|--------------------------------------


E|--------------------------------------
B|--6(x)--6--6--5---5--6---6--8---8---6--6---5--
G|--------------------------------------
D|--------------------------------------
A|--------------------------------------
E|--------------------------------------


E|--------------------------------------
B|--6(x)--6--6--5---5--6---6--8---8---6--6---5--
G|--------------------------------------
D|--------------------------------------
A|--------------------------------------
E|--------------------------------------


E|-----------------
B|-----10------10-10-
G|--12----12-------
D|-----------------
A|-----------------
E|-----------------

E|-----------------
B|-----10------10-10-
G|--12----12-------
D|-----------------
A|-----------------
E|-----------------

E|-----------------------
B|-------11-10-------------
G|--12-------12-10-------
D|------------------------12-10-
A|-----------------------
E|-----------------------


E|-----------------
B|-----10------10-10-
G|--12----12-------
D|-----------------
A|-----------------
E|-----------------

E|-----------------
B|-----10------10-10-
G|--12----12-------
D|-----------------
A|-----------------
E|-----------------

E|-----------------------
B|-------11-10-------------
G|--12----------12-10--10-10----
D|--------------------------
A|-----------------------
E|-----------------------


E|--10-13-13-13-
B|--------------
G|--------------
D|--------------
A|--------------
E|--------------

E|--10-13-13-13-13p12-
B|--------------------
G|--------------------
D|--------------------
A|--------------------
E|--------------------

E|--10-13-13-13-
B|--------------
G|--------------
D|--------------
A|--------------
E|--------------

E|--10-10-17-15-15-
B|-----------------
G|-----------------
D|-----------------
A|-----------------
E|-----------------

E|-----------------------------
B|--10----10hp11-------------------
G|------12------------12-10-10-10-10-10-
D|-----------------------------
A|-----------------------------
E|-----------------------------


E|-----------------------------
B|--10----10hp11-------------------
G|------12------------12-10-10-10-10-10-
D|-----------------------------
A|-----------------------------
E|-----------------------------


E|--------------------------------------------
B|--10----10hp11----------------------------------13--13-13-13-
G|------12------------12-10-10-10-10-12-12-------------
D|--------------------------------------------
A|--------------------------------------------
E|--------------------------------------------

E|-----------------------------------------------
B|--13-11-10-13-11-10-13-11-10-------11\13-11-10-
G|-----------------------------------------------12-10-------------
D|-----------------------------------------------
A|-----------------------------------------------
E|-----------------------------------------------


E|---------------------------------------------------------------
B|---------------10h11-10----------10-----------------------
G|--10-10-12--------------12-10------12-10-10------------
D|--------------------------------------------------------------12/--
A|---------------------------------------------------------------
E|---------------------------------------------------------------


Repeat TABS according to song structure.

Feel Free to ask your doubts in comment section below.


Free Backing Track Only For Practice (Re-Produced By FUXiNO).




THANK YOU.

#FUXiNO



Comments

Post a Comment

Populer Posts

Despacito Guitar Tabs/Lead Lesson in Hindi | Luis Fonsi | Daddy Yankee | Justin Bieber

Channa Mereya-Ae dil hai mushkil Tabs with intro

O O JANE JANA GUITAR TABS SINGLE STRING AND MULTISTRING