Posts

Showing posts from July, 2019

TERA BAN JAUNGA Guitar Tabs Lesson w/ Cover & Chords by FUXiNO | Kabir Singh | FX-MUSIC

Image
CHORD USED -  B,E,G#m
TABS
E|--------------------------------
B|--------7--4--------------7--4--
G|--4--6--------6--4--4--6--------
D|--------------------------------
A|--------------------------------
E|--------------------------------


E|-----------------------------
B|--------7--4--9--7---7\9--7--
G|--4--6-----------------------
D|-----------------------------
A|-----------------------------
E|-----------------------------

E|-----------------------------
B|-----------7--4---4hp5--------
G|--4--6--6--------------6--4--
D|-----------------------------
A|-----------------------------
E|-----------------------------

E|-----------------
B|-------------7--4--
G|--4--6--6--------
D|-----------------
A|-----------------
E|-----------------

E|-----------------------------
B|--------7--4--9--7---7\9--7--
G|--4--6-----------------------
D|-----------------------------
A|-----------------------------
E|-----------------------------


E|--7--6--9--7--7--6--6--------------------
B|---------------------------9--9--7--7\9--9--
G|---…

O Mehndi Pyar Wali Hathon Pe Lagaogi Guitar Tabs & Chords | O Dil Tod Ke Hasti Ho Mera | TIK TOK VIRAL SONG

Image
CHORDS > A#m,G#,F#

STRUMMING >D-UU


TABS


INTRO
E|--------------------
B|------------13hp14-------
G|--15-15-------------15-13-
D|--------------------
A|--------------------
E|--------------------


E|--------------------
B|------------13hp14-------
G|--15-15-------------15-13-
D|--------------------
A|--------------------
E|--------------------



E|--------------------
B|------------13hp14-------
G|--15-15-------------15-13-
D|--------------------
A|--------------------
E|--------------------


(EASY VERSION OF INTRO)

E|-----------8hp9--------
B|--11-11----------11-9--
G|--------------------
D|--------------------
A|--------------------
E|--------------------


SONG

E|--------------------------------------------
B|--------4---4--6--6--6---4--6-----4--4--6--6--
G|--\6--6----------------------------6--------------
D|--------------------------------------------
A|--------------------------------------------
E|--------------------------------------------

E|--------------------
B|--6--4----------…

Tujhe Kitna Chahne Lage Hum Guitar Tabs Lesson w/ Cover & Chords | KABIR SINGH | FUXiNO

Image
CHORD USED - B,G#m,E,F#,C#m,Dm

TABS

SYMBOLS (/) Slide Down (\) Slide Up   (h) Hammer On   (p) Pull Off   (x) Muted

E|-----------------------------------
B|--2\5--4-----------------------------
G|------------6--4--6\8-----------
D|-----------------------------------
A|-----------------------------------
E|-----------------------------------


E|-----------------------------------
B|----------------------------------
G|---3--4--6--4--4---------------
D|-----------------------------------
A|-----------------------------------
E|-----------------------------------


E|--------------------------------
B|--\7--7--7--7/-------------------
G|-----------------\4--------------------
D|--------------------------------
A|--------------------------------
E|--------------------------------

E|--------------------------------
B|--------4hp5--------
G|-4--6---------6--6--
D|--------------------------------
A|--------------------------------
E|--------------------------------

IT TAKES A-LOT OF EFFORT TO MAKE…