O Mehndi Pyar Wali Hathon Pe Lagaogi Guitar Tabs & Chords | O Dil Tod Ke Hasti Ho Mera | TIK TOK VIRAL SONG


CHORDS > A#m,G#,F#

STRUMMING > D-UU


TABS


INTRO
E|--------------------
B|------------13hp14-------
G|--15-15-------------15-13-
D|--------------------
A|--------------------
E|--------------------


E|--------------------
B|------------13hp14-------
G|--15-15-------------15-13-
D|--------------------
A|--------------------
E|--------------------



E|--------------------
B|------------13hp14-------
G|--15-15-------------15-13-
D|--------------------
A|--------------------
E|--------------------


(EASY VERSION OF INTRO)

E|-----------8hp9--------
B|--11-11----------11-9--
G|--------------------
D|--------------------
A|--------------------
E|--------------------


SONG

E|--------------------------------------------
B|--------4---4--6--6--6---4--6-----4--4--6--6--
G|--\6--6----------------------------6--------------
D|--------------------------------------------
A|--------------------------------------------
E|--------------------------------------------

E|--------------------
B|--6--4--------------
G|--------6--5--5--5--
D|--------------------
A|--------------------
E|--------------------


E|--------------------------
B|--------------------------
G|--5--6--8--6--5hp6-------
D|--------------------------8--
A|--------------------------
E|--------------------------



E|--------------------------------------------
B|--------4---4--6--6--6---4--6-----4--4--6--6--
G|--\6--6----------------------------6--------------
D|--------------------------------------------
A|--------------------------------------------
E|--------------------------------------------

E|--------------------
B|--6--4--------------
G|--------6--5--5--5--
D|--------------------
A|--------------------
E|--------------------


E|--------------------------
B|--------------------------
G|--5--6--8--6--5hp6-------
D|--------------------------8--
A|--------------------------
E|--------------------------


E|-----------------------
B|-----------------------
G|--6--5-----------------
D|--------6--8--8--8--8--
A|-----------------------
E|-----------------------

E|-----------------------
B|-----------------------
G|--6--5-----------------
D|--------6--8--8--8--8--
A|-----------------------
E|-----------------------

E|-----------------------
B|-----------------------
G|--6--5-----------------
D|--------6--8--8--8--8--
A|-----------------------
E|-----------------------


E|--------------------
B|--------------------
G|-----5-----------5--
D|--8-----8--6--8-----
A|--------------------
E|--------------------


E|--------------------
B|--------------------6--
G|--5--5--5--6--8-----
D|--------------------
A|--------------------
E|--------------------

E|--------------------
B|--------------------
G|--8--6--5-----------
D|-----------8--8--8--
A|--------------------
E|--------------------

Repeat Above Lines According to Song Structure (Watch My Video For Better Understanding)

Feel Free To Ask Your Doubts in Comment Section Below.

Thank You.

#FUXiNO

Comments

  1. Backing track I will buy it fuzail Bhai I want it pleassss

    ReplyDelete
  2. There's a mistake in the tabs. Plz correct it

    ReplyDelete
    Replies
    1. Hi, Can You Exactly Tell me which line is incorrect???

      I have checked, its fine.

      Delete
  3. What is \ showing in the tabs ?

    ReplyDelete
  4. R u gandu...
    Ye bhi nhi malum or directly song play krne lga bhai
    .....

    ReplyDelete
  5. Amazing I loved it thanks . Always remain blessed. I'm 11 years old and I have learnt 31 songs in 6 months now including this 32 . Thanks for proving the written tabs in your blog.

    ReplyDelete

Post a Comment

Populer Posts

Despacito Guitar Tabs/Lead Lesson in Hindi | Luis Fonsi | Daddy Yankee | Justin Bieber

Channa Mereya-Ae dil hai mushkil Tabs with intro

O O JANE JANA GUITAR TABS SINGLE STRING AND MULTISTRING