TERA BAN JAUNGA Guitar Tabs Lesson w/ Cover & Chords by FUXiNO | Kabir Singh | FX-MUSIC


CHORD USED -  B,E,G#m
TABS
E|--------------------------------
B|--------7--4--------------7--4--
G|--4--6--------6--4--4--6--------
D|--------------------------------
A|--------------------------------
E|--------------------------------


E|-----------------------------
B|--------7--4--9--7---7\9--7--
G|--4--6-----------------------
D|-----------------------------
A|-----------------------------
E|-----------------------------

E|-----------------------------
B|-----------7--4---4hp5--------
G|--4--6--6--------------6--4--
D|-----------------------------
A|-----------------------------
E|-----------------------------

E|-----------------
B|-------------7--4--
G|--4--6--6--------
D|-----------------
A|-----------------
E|-----------------

E|-----------------------------
B|--------7--4--9--7---7\9--7--
G|--4--6-----------------------
D|-----------------------------
A|-----------------------------
E|-----------------------------


E|--7--6--9--7--7--6--6--------------------
B|---------------------------9--9--7--7\9--9--
G|-----------------------------------------
D|-----------------------------------------
A|-----------------------------------------
E|-----------------------------------------

E|--7--6--9--7--7--6--6---------------------
B|-----------------------------9--9--7--7--9--9--
G|-----------------------------------------
D|-----------------------------------------
A|-----------------------------------------
E|-----------------------------------------


E|--7--6--9--7--7--6--6--------------7-----------
B|----------------------------9--9--7-----9--9-----
G|--------------------------------------------
D|--------------------------------------------
A|--------------------------------------------
E|--------------------------------------------


E|--7--7--7--7-----------------
B|-----------------7--9--9/7--7--
G|-----------------------------
D|-----------------------------
A|-----------------------------
E|-----------------------------


E|--7--7--7--7--------------7-----
B|-----------------7--9--9------7--
G|-----------------------------
D|-----------------------------
A|-----------------------------
E|-----------------------------



E|-------------------
B|-------------4-------
G|--4--6--6-----------------
D|--------------------------
A|--------------------------
E|--------------------------


E|-------------------
B|-------------4-------
G|--4--6--6-----------------
D|--------------------------
A|--------------------------
E|--------------------------


E|----------------9-----9-----
B|------------4-----7-----7--
G|--4--6--6-----------------
D|--------------------------
A|--------------------------
E|--------------------------









E|--4-----4--------------------------4-4-4--7-------
B|-----7-----7------4-----------------------------7--
G|------------------------6--4--6-----------------
D|-----------------------------------------
A|-----------------------------------------
E|-----------------------------------------

E|--4-----4-----4-----------------------
B|-----7-----7-----7------------4--4--4--
G|--------------------4--6---6-----------
D|--------------------------------------
A|--------------------------------------
E|--------------------------------------

E|--4-----4-----4-----------4--4--7--4-----
B|-----7-----7-----7-----------------------7--
G|--------------------4--6-----------------
D|-----------------------------------------
A|-----------------------------------------
E|-----------------------------------------

E|--7--7--6--9---9-----
B|---------------7-----7--
G|-----------------------
D|-----------------------
A|-----------------------
E|-----------------------



E|--7--6--9--7--7--6--6--------------------
B|---------------------------9--9--7--7\9--9--
G|-----------------------------------------
D|-----------------------------------------
A|-----------------------------------------
E|-----------------------------------------

E|--7--6--9--7--7--6--6-------------7--------
B|---------------------------9--9--7-----9--9--
G|-----------------------------------------
D|-----------------------------------------
A|-----------------------------------------
E|-----------------------------------------



E|--7--6--9--9--9--11--7------------7--------
B|----------------------------9--9--7-----9--9--
G|-----------------------------------------
D|-----------------------------------------
A|-----------------------------------------
E|-----------------------------------------

E|--7--7--7--7-----------------
B|----------------7--9--9/7--7--
G|-----------------------------
D|-----------------------------
A|-----------------------------
E|-----------------------------

E|--7--7--7--7-----------7-----
B|--------------7--9---9-----7--
G|-----------------------------
D|-----------------------------
A|-----------------------------
E|-----------------------------


Repeat TABS according to song structure.

Feel Free to ask your doubts in comment section below.






THANK YOU.

#FUXiNO

Comments

  1. Here just one song tab only

    ReplyDelete
  2. Which software do you use to make video

    ReplyDelete
  3. I m begginer ..I don't understand what above is told..I don't know major and minor..Pls help

    ReplyDelete
  4. Pls give tabs of slow motion (bharat)

    ReplyDelete
  5. Please give the background music

    ReplyDelete
  6. Very nice l make your fan bro

    ReplyDelete
    Replies
    1. How do you find so accurate tabs. Please upload a lesson on that.

      Delete

Post a Comment

Populer Posts

Despacito Guitar Tabs/Lead Lesson in Hindi | Luis Fonsi | Daddy Yankee | Justin Bieber

Channa Mereya-Ae dil hai mushkil Tabs with intro

O O JANE JANA GUITAR TABS SINGLE STRING AND MULTISTRING