Tujhe Kitna Chahne Lage Hum Guitar Tabs Lesson w/ Cover & Chords | KABIR SINGH | FUXiNO


CHORD USED - B,G#m,E,F#,C#m,Dm

TABS

SYMBOLS 
(/) Slide Down
(\) Slide Up  
(h) Hammer On  
(p) Pull Off  
(x) Muted


E|-----------------------------------
B|--2\5--4-----------------------------
G|------------6--4--6\8-----------
D|-----------------------------------
A|-----------------------------------
E|-----------------------------------


E|-----------------------------------
B|----------------------------------
G|---3--4--6--4--4---------------
D|-----------------------------------
A|-----------------------------------
E|-----------------------------------


E|--------------------------------
B|--\7--7--7--7/-------------------
G|-----------------\4--------------------
D|--------------------------------
A|--------------------------------
E|--------------------------------

E|--------------------------------
B|--------4hp5--------
G|-4--6---------6--6--
D|--------------------------------
A|--------------------------------
E|--------------------------------

IT TAKES A-LOT OF EFFORT TO MAKE VIDEOS AND WRITTEN NOTES
SO, IF YOU WANT TO SUPPORT MY WORK PLEASE DONATE SOMETHING BY CLICKING THIS DONATE BUTTON.


E|-----------------------------------
B|----5--4-----------------------------
G|------------6--4--6\8-----------
D|-----------------------------------
A|-----------------------------------
E|-----------------------------------



E|-----------------------------------
B|----------------------------------
G|---3--4--6--4--4---------------
D|-----------------------------------
A|-----------------------------------
E|-----------------------------------


E|--------------------------------
B|--\7--7--7--7/-------------------
G|-----------------\4--------------------
D|--------------------------------
A|--------------------------------
E|--------------------------------

E|--------------------------------
B|--------4hp5--------
G|-4--6---------6--6--
D|--------------------------------
A|--------------------------------
E|--------------------------------



E|--------------------------------------
B|--4--5--7\9--7\9--12-11-9-----------
G|-------------------------------11-11----
D|--------------------------------------
A|--------------------------------------
E|--------------------------------------

E|--------------------
B|--------------------
G|--11-9--8-----8\9--
D|------------11-------
A|--------------------
E|--------------------

E|-----------------
B|-----9-----------
G|--9-----11-9--8--
D|-----------------
A|-----------------
E|-----------------


E|-----------
B|-----------
G|--9--8--6--
D|-----------
A|-----------
E|-----------


E|-----------------------------------------
B|---------------------------5--4--------------
G|--4--6---6\8--6--4--6--------6--6--6--6--
D|-----------------------------------------
A|-----------------------------------------
E|-----------------------------------------


E|--------------------------------------
B|--------4--4--------------5--4-----------
G|--4--6--------6---6--6--------6--4--4--
D|--------------------------------------
A|--------------------------------------
E|--------------------------------------


E|--------------------------------------------------------------
B|---------------------------5--4--------------4-----4--------------
G|--4--6--6\8--6--4--6--------4--6--6--6-----6-----6--3--------
D|--------------------------------------------------------------6--4--
A|--------------------------------------------------------------
E|--------------------------------------------------------------

E|--------------------------------------
B|--------4--4---------------5--4-----------
G|--4--6--------6----6--6--------6--4--4--
D|--------------------------------------
A|--------------------------------------
E|--------------------------------------

E|-----------------------------------
B|--------4--4-----7-----4-----------
G|--4--6--------6-----6-----6--4--4--
D|-----------------------------------
A|-----------------------------------
E|-----------------------------------

(ELECTRIC GUITAR SOLO)
E|-----------------------------
B|--17-19-16-14-12-11-9--
G|----------------------------
D|-----------------------------
A|-----------------------------
E|-----------------------


(ELECTRIC GUITAR SOLO IN L.O for ACOUSTIC GUITAR)

E|-----------------------
B|--5--7--4--------------
G|-----------6--4--3-----
D|--------------------6--
A|-----------------------
E|-----------------------


(HIGH PART IN H.O)

E|--14-16-14----------
B|-------------16-14----
G|----------------------16-
D|--------------------
A|--------------------
E|--------------------

E|--14-16-14-------------
B|-----------16-14----14-
G|-----------------16----
D|-----------------------
A|-----------------------
E|-----------------------

E|--14-16-14----------
B|--------------16-14----
G|-----------------------16-
D|--------------------
A|--------------------
E|--------------------

E|--------------------------------------------------
B|--------------------------------14-14-14--14-16-16-16--16\17-
G|--16-15--15-16-16-16--16----------------------------
D|--------------------------------------------------
A|--------------------------------------------------
E|--------------------------------------------------


(HIGH PART IN L.O FOR ACOUSTIC GUITAR)

E|--------------------
B|--7--9--7--4--------
G|--------------6--4--
D|--------------------
A|--------------------
E|--------------------

E|-----------------------
B|--7--9--7--4-----------
G|--------------6--4--6--
D|-----------------------
A|-----------------------
E|-----------------------

E|--------------------
B|--7--9--7--4--------
G|--------------6--4--
D|--------------------
A|--------------------
E|--------------------

E|--------------------------------------------------
B|-----------------------------------------4--4--4---4\5--
G|--4--3--3--4--4--4---4--6--6--6---6-----------------
D|--------------------------------------------------
A|--------------------------------------------------
E|--------------------------------------------------

E|--------------------
B|--7--9--7--4--------
G|--------------6--4--
D|--------------------
A|--------------------
E|--------------------

E|-----------------------
B|--7--9--7--4-----------
G|--------------6--4--6--
D|-----------------------
A|-----------------------
E|-----------------------

E|--------------------
B|--7--9--7--4--------
G|--------------6--4--
D|--------------------
A|--------------------
E|--------------------

E|--------------------------------------------------
B|-----------------------------------------4--4--4---4\5--
G|--4--3--3--4--4--4---4--6--6--6---6-----------------
D|--------------------------------------------------
A|--------------------------------------------------
E|--------------------------------------------------




Repeat Above Line According To Song Structure


FEEL FREE TO ASK YOUR DOUBTS IN COMMENT SECTION BELOW.

THANK YOU.

#FUXiNO

Comments

Post a Comment

Populer Posts

Despacito Guitar Tabs/Lead Lesson in Hindi | Luis Fonsi | Daddy Yankee | Justin Bieber

Channa Mereya-Ae dil hai mushkil Tabs with intro

O O JANE JANA GUITAR TABS SINGLE STRING AND MULTISTRING