Posts

Showing posts from August, 2019

VAASTE GUITAR TABS,CHORDS with Backing Track by FUXiNO | FX-MUSIC

Image
WATCH MY VIDEO FOR BETTER UNDERSTANDING...

Chord Used - Capo on 5th Fret C,G,Am,F

STRUMMING - D-UDU-D-UDU-DD - (DU)*  Last (DU)* Stroke is filler
Backing Track is Available Below of This Post (Scroll Down)
TABS
SYMBOLS (/) Slide Down (\) Slide Up   (h) Hammer On   (p) Pull Off   (x) Muted

INTRO E|------------------------------------- B|--\6--6--6--6---6--6--6---6--6-- G|------------------------------------ D|------------------------------------- A|------------------------------------ E|------------------------------------

E|--------------------------------------- B|---6\8--8--8--8---8--8--8---8--8-- G|--------------------------------------- D|--------------------------------------- A|--------------------------------------- E|--------------------------------------- IT TAKES A-LOT OF TIME AND EFFORTS TO MAKE VIDEOS,BACKING TRACK AND THESE WRITTEN NOTES, SO IF YOU WANT TO ENCOURAGE ME YOU CAN BY DONATING ANYTHING (CLICK ON THIS PAYTM ICON) Donate with


E|---------------------------------------…

Senorita Guitar Tab Sheet with Chords and Bass Guitar Notes by FUXiNO | Shawn Mendes, Camila Cabello | | FX MUSIC

Image
CHORD USED
Am,C,F,Em,G

PROGRESSIONS
Am>C>F>Em>G
Am>C>G

With CAPO on 5th - Em,G,C,Bm,D

PROGRESSIONS with CAPO
Em>G>C>Bm>D
Em>G>D


IT TAKES ALOT TIME TO MAKE VIDEOS AND NOTES, SO IF YOU WANT TO SUPPORT MY WORK, YOU CAN BY DONATE ANYTHING TO ENCOURAGE ME Donate with


BASS LINE (Muted Bass Guitar Notes on Standard Acoustic Guitar)
(Am)
E|-----------------------------------
B|-----------------------------------
G|-----------------------------------
D|------------------5--7--5---------
A|-----7--7-----7-----------7--5--
E|--5--------5----------------------

(C)
E|-----------------------------------
B|----------------------------------
G|-----------------------2-----------
D|-----5--5-----5--5-----5--2--0--
A|--3--------3----------------------
E|----------------------------------

(F)
E|-----------------------------------
B|-----------------------------------
G|-----------------------------------
D|-----------------------0-----------
A|-----3-…