Papa Kehte Hain Bada Naam Karega Guitar Tabs (Notes) with Chords & Strumming Pattern by FUXiNO | FX-MUSIC




Lead Free Backing Track for Practice 

Backing (with Guided Lead in slow volume) Track For Beginners To Follow Timing of Notes (Headphones Recommended)


IT TAKES TOO MUCH TIME AND EFFORTS TO MAKE VIDEOS,NOTES,BACKING TRACK FOR YOU GUYS AND I DONT EARN TOO MUCH DUE TO COPYRIGHT ISSUE SO IF YOU WANT TO SUPPORT MY WORK YOU CAN BY DONATING ANYTHING ON PAYTM (Simply Click On This PAYTM Button). Thank You.
Donate with




CHORDS - C,Am,F,G

STRUMMING - DD-UU-DU


TABS

E|-----------------------------------------
B|--\5--5------------------------6--5-----
G|--------7--5--7--------5--5--------7--
D|------------------5--7------------------
A|-----------------------------------------
E|-----------------------------------------

E|-----------------------------------------
B|--\5--5--------------------------6--5hp6-----
G|---------7-7--5--7--------5--5--------------7--
D|----------------------5--7------------------
A|-----------------------------------------
E|-----------------------------------------

E|-----------------------------------------
B|--5--5------------------------6--5-----
G|--------7--5--7--------5--5--------7--
D|------------------5--7------------------
A|-----------------------------------------
E|-----------------------------------------

E|-----------------
B|-----------------
G|--------4--5--5--
D|--5--7-----------
A|-----------------
E|-----------------

E|-----------------
B|-----------------
G|--5--5--4--------
D|-----------7--7--
A|-----------------
E|-----------------

E|-----------------------------
B|-----------------------------
G|-----------------------------
D|--7--7--5--3--3--2--3--3\5--
A|-----------------------------
E|-----------------------------

E|-----------------------------------------
B|--\5--5------------------------6--5-----
G|--------7--5--7--------5--5--------7--
D|------------------5--7------------------
A|-----------------------------------------
E|-----------------------------------------


E|-----------
B|--5--------
G|-----7--5--
D|-----------
A|-----------
E|-----------



E|--------------------
B|--------------------
G|--0--0--0--0h2--0--
D|--------------------
A|--------------------
E|--------------------

E|-----------------------
B|-----------------------
G|--0--0--0--0-0h2--0-----
D|-----------------------
A|-----------------------
E|-----------------------

E|--------------------
B|--------------------
G|--5--5--4--2\4--2--
D|--------------------
A|--------------------
E|--------------------

E|--------------
B|--------------
G|--4--2--4--4\5--
D|--------------
A|--------------
E|--------------


E|--------------------
B|--------------------
G|--0--0--0--0--0h2--0--
D|--------------------
A|--------------------
E|--------------------


E|--------------------
B|--------------------
G|--0--0--0--0--0h2--0--
D|--------------------
A|--------------------
E|--------------------

E|--------------------
B|--------------------
G|--5--5--5--4--2\4--2--
D|--------------------
A|--------------------
E|--------------------


E|-----------------------
B|-----------------------
G|--4--2--4--5--0--2--0--
D|-----------------------
A|-----------------------
E|-----------------------


E|--------------------
B|--------------------
G|--0--0--0---0h2--0--
D|--------------------
A|--------------------
E|--------------------


E|--------------------
B|--------------------
G|--0--0--0--0--0h2--0--
D|--------------------
A|--------------------
E|--------------------


E|--------------------
B|--------------------
G|--5-5-5--4--2\4--2--
D|--------------------
A|--------------------
E|--------------------


E|--------------------------
B|----------------------------5--
G|--4--2--4--5--5--7--7-----
D|--------------------------
A|--------------------------
E|--------------------------


E|-----------------------------------------
B|--5--5------------------------6--5-----
G|--------7--5--7--------5--5--------7--
D|------------------5--7------------------
A|-----------------------------------------
E|-----------------------------------------

E|-----------------------------------------
B|--5--5------------------------6--5-----
G|--------7--5--7--------5--5--------7--
D|------------------5--7------------------
A|-----------------------------------------
E|-----------------------------------------


E|-----------------
B|-----------------
G|--------4--5--5--
D|--5--7-----------
A|-----------------
E|-----------------


E|-----------------
B|-----------------
G|--5--5--4--------
D|-----------7--7--
A|-----------------
E|-----------------


E|-----------------------------
B|-----------------------------
G|-----------------------------
D|--7--7--5--3--3--2--3--3\5--
A|-----------------------------
E|-----------------------------


E|-----------------------------------------
B|--\5--5------------------------6--5hp6-----
G|--------7--5--7--------5--5--------------7--
D|------------------5--7------------------
A|-----------------------------------------
E|-----------------------------------------


E|-----------
B|--5--------
G|-----7--5--
D|-----------
A|-----------
E|-----------


HIGH OCTAVE


E|--------------------
B|--------------------
G|--12-12-12-12h14-12-
D|--------------------
A|--------------------
E|--------------------

E|--------------------
B|--------------------
G|--12-12-12-12-12h14-12-
D|--------------------
A|--------------------
E|--------------------

E|-----------------------------------------
B|--13-13-12---------------------------
G|---------------14\16-14--------------
D|-----------------------------------------
A|-----------------------------------------
E|-----------------------------------------


E|-----------------------------------------
B|--12-----12-13------------------------
G|------14---------12-14-12------------
D|-----------------------------------------
A|-----------------------------------------
E|-----------------------------------------


E|--------------------
B|--------------------
G|--12-12-12-12h14-12-
D|--------------------
A|--------------------
E|--------------------


E|--------------------
B|--------------------
G|--12-12-12-12-12h14-12-
D|--------------------
A|--------------------
E|--------------------


E|-----------------------------------------
B|--13-13-13-12---------------------------
G|------------------14\16-14--------------
D|-----------------------------------------
A|-----------------------------------------
E|-----------------------------------------


E|------------------------------12-
B|--12----12-13-13-15-15----
G|-----14-------------------
D|--------------------------
A|--------------------------
E|--------------------------


E|--12-12-------------------------------13-12----
B|----------15-13-15----------13-13-----------15-
G|----------------------12-14----------------
D|--------------------------------------
A|--------------------------------------
E|--------------------------------------


E|--12-12-12--------------------------------13-12----
B|--------------15-13-15----------13-13-----------15-
G|---------------------------12-14----------------
D|--------------------------------------
A|--------------------------------------
E|--------------------------------------


E|-----------------
B|----------12--13-13-
G|--12-14----------
D|-----------------
A|-----------------
E|-----------------


E|-----------------
B|--13-13-12-------
G|--------------14-14-
D|-----------------
A|-----------------
E|-----------------


E|--------------------------
B|--------------------------
G|--14-14-12-10-10--9--10--10\12-
D|--------------------------
A|--------------------------
E|--------------------------


E|--12-12-------------------------------13-12----
B|----------15-13-15----------13-13-----------15-
G|----------------------12-14----------------
D|--------------------------------------
A|--------------------------------------
E|--------------------------------------


E|--12-------
B|-----15-13-
G|-----------
D|-----------
A|-----------
E|-----------


Repeat and play above notes according to song structure (watch my video as reference), if you have any doubt leave your comments below.

Thank You.


#FUXiNO

Comments

  1. Thank you for your help. But would u start making tabs of anime songs also like unravel

    ReplyDelete

Post a Comment

Populer Posts

Despacito Guitar Tabs/Lead Lesson in Hindi | Luis Fonsi | Daddy Yankee | Justin Bieber

Channa Mereya-Ae dil hai mushkil Tabs with intro

O O JANE JANA GUITAR TABS SINGLE STRING AND MULTISTRING