Ranu Mondal and Himesh Reshammiya Song Teri Meri Kahani LYRICS Chords Guitar Tabs and Strumming Pattern by FUXiNO | FX-MUSIC

Ranu Mondal viral song teri meri kahani for singer and actor himesh reshammiya ’s upcoming movie Happy Hardy and Heer.The full song is not released yet i will try to upload the full song Tabs and chords as soon as the full song releases.


CHORDS - Bm,A,G

STRUMMING - D-D  (USED IN MY VIDEO)


(Female - Ranu Mondal)

(Bm>A>G)

Aa…..aaaaa…aaaa


(Bm)Teri hi meri hi 
(A)Teri meri
(Bm)Teri meri hi kahani
(G)  (Music)

(Bm)Teri hi meri hi 
(A)Teri meri
(Bm)Teri meri hi kahani
(G)  (Music)

(Male - Himesh Reshammiya)

(Bm)Teri hi meri hi 
(A)Teri meri
(G)Teri meri hi kahani

(Bm)Teri hi meri hi 
(A)Teri meri
(G)Teri meri hi kahani


TABS (Watch My Video For Better Understanding)

RANU MONDAL (FEMALE PART)
E|-----------------------
B|--14\15-14-12h14-12h14-
G|-----------------------
D|-----------------------
A|-----------------------
E|-----------------------


E|-----------------
B|--12-10h12-10h12-
G|-----------------
D|-----------------
A|-----------------
E|-----------------

E|-----------------------
B|--14\15-14-12h14-12h14-
G|-----------------------
D|-----------------------
A|-----------------------
E|-----------------------


E|-----------------
B|--12-10h12-10h12-
G|-----------------
D|-----------------
A|-----------------
E|-----------------


E|--------------------------------
B|--15-14-14-14-12-15-14-14-14-12-
G|--------------------------------
D|--------------------------------
A|--------------------------------
E|--------------------------------

E|-----------------
B|-----12-12-12-14-
G|--14-------------
D|-----------------
A|-----------------
E|-----------------

E|-----------------------------
B|-----12-15-14-14-14-12-12-12-
G|--14-------------------------
D|-----------------------------
A|-----------------------------
E|-----------------------------



E|--------------------------------
B|--15-14-14-14-12-15-14-14-14-12-
G|--------------------------------
D|--------------------------------
A|--------------------------------
E|--------------------------------

E|-----------------
B|-----12-12-12-12\14-
G|--14-------------
D|-----------------
A|-----------------
E|-----------------

E|-----------------------------
B|-----12-15-14-14-14-12-12-12-
G|--14-------------------------
D|-----------------------------
A|-----------------------------
E|-----------------------------


HIMESH RESHAMMIYA (MALE PART)

E|-----------------
B|--3--2--2--2-----
G|--------------4--
D|-----------------
A|-----------------
E|-----------------


E|-----------------
B|--3--2--2--2-----
G|---------------4--
D|-----------------
A|-----------------
E|-----------------

E|-----------------
B|-----------------2--
G|--2--4--4--4-----
D|-----------------
A|-----------------
E|-----------------

E|-----------------------------
B|--------3--2--2--2-----------
G|--2--4---------------4--4--4--
D|-----------------------------
A|-----------------------------
E|-----------------------------




E|-----------------
B|--3--2--2--2-----
G|--------------4--
D|-----------------
A|-----------------
E|-----------------


E|-----------------
B|--3--2--2--2-----
G|---------------4--
D|-----------------
A|-----------------
E|-----------------

E|-----------------
B|-------------------
G|--2--4--4--4--4\6---
D|-----------------
A|-----------------
E|-----------------

E|-----------------------------
B|--------3--2--2--2-----------
G|--2--4---------------4--4--4--
D|-----------------------------
A|-----------------------------
E|-----------------------------



E|-----------------
B|--3--2--2--2-----
G|--------------4--
D|-----------------
A|-----------------
E|-----------------


E|-----------------
B|--3--2--2--2-----
G|---------------4--
D|-----------------
A|-----------------
E|-----------------

E|-----------------
B|-------------------2--
G|--2-2-4-4--4--4-----
D|-----------------
A|-----------------
E|-----------------

E|-----------------------------
B|--------3--2--2--2-----------
G|--2--4---------------4-4---4--4--
D|-----------------------------
A|-----------------------------
E|-----------------------------


The full song is not released yet i will try to upload the full song video as soon as the full song releases.

Thank You

#FUXiNO

Comments

Populer Posts

Despacito Guitar Tabs/Lead Lesson in Hindi | Luis Fonsi | Daddy Yankee | Justin Bieber

Channa Mereya-Ae dil hai mushkil Tabs with intro

O O JANE JANA GUITAR TABS SINGLE STRING AND MULTISTRING