Senorita Guitar Tab Sheet with Chords and Bass Guitar Notes by FUXiNO | Shawn Mendes, Camila Cabello | | FX MUSIC


CHORD USED
Am,C,F,Em,G

PROGRESSIONS
Am>C>F>Em>G
Am>C>G

With CAPO on 5th - Em,G,C,Bm,D

PROGRESSIONS with CAPO
Em>G>C>Bm>D
Em>G>D


IT TAKES ALOT TIME TO MAKE VIDEOS AND NOTES, SO IF YOU WANT TO SUPPORT MY WORK, YOU CAN BY DONATE ANYTHING TO ENCOURAGE ME Donate with


BASS LINE (Muted Bass Guitar Notes on Standard Acoustic Guitar)
(Am)
E|-----------------------------------
B|-----------------------------------
G|-----------------------------------
D|------------------5--7--5---------
A|-----7--7-----7-----------7--5--
E|--5--------5----------------------

(C)
E|-----------------------------------
B|----------------------------------
G|-----------------------2-----------
D|-----5--5-----5--5-----5--2--0--
A|--3--------3----------------------
E|----------------------------------

(F)
E|-----------------------------------
B|-----------------------------------
G|-----------------------------------
D|-----------------------0-----------
A|-----3--3-----3--3-----3--2-----
E|--1--------1-----------------3--

(Em)
E|-----------------------
B|-----------------------
G|-----------------------
D|-----------------------
A|--------2--0--2--------
E|--0--0-----------3--3--

(G)
E|-----------------
B|-----------------
G|-----------------
D|-----------------
A|-----5--3--5-----
E|--3-------------5--


MUTED ELECTRIC GUITAR INTRO

E|------------------------
B|--13-------13-12-----
G|-----14--------------12-
D|--------14-------------
A|------------------------
E|-------------------------

E|-----------------------------------------------------
B|--12-13-12------12-13------------13-12-------
G|-----------------14-----------12----------------12-
D|--------------------------------------14----------
A|---------------------------------------------------
E|-------------------------------------------------

E|-----------------------------------------------------------
B|--12-13-12---------------13-13-13-------13-13-13-
G|---------------14-12-----------------------------------
D|---------------------------15------------15-15----------
A|--------------------------------------------------------
E|----------------------------------------------------------

E|-----------------------------------------------------------
B|--12-13-12-13-12----12-13-12-13-12----------12-
G|--------------------------12------------------------14-14----
D|------------------------------------------------------------
A|-----------------------------------------------------------
E|-----------------------------------------------------------

(REPEAT IF REQUIRED)


MAIN SONG

(FEMALE PART)

E|-----------------------------------------------------------
B|--12-13-12------12-13-----------13-12---------------
G|----------------14--------------14-----------------12--
D|-------------------------------------14------------------
A|---------------------------------------------------------
E|---------------------------------------------------------




E|----------------------------------------------
B|--12-13-12----12-13--------13-12-------
G|----------------14-------12--------------12-
D|--------------------------------14-----------
A|----------------------------------------------
E|---------------------------------------------

E|-----------------------------------------------------------------
B|--12-13-12--------------13-13-13-----------13-13-13----
G|---------------14-12------------------------------------------
D|--------------------------15----------------15-15-------------
A|----------------------------------------------------------------
E|----------------------------------------------------------------

E|------------------------------
B|--12-13-12-13-12---------
G|--------------------------12--
D|------------------------------
A|------------------------------
E|------------------------------

E|---------------------------------------------
B|--12-13-12-13-12-----------------------
G|-------------------------14-12h14-12h14-
D|-------------------------------------------
A|---------------------------------------------
E|--------------------------------------------



MALE PART

E|-----------------
B|--5-----5--------
G|-----7-----7--5--
D|-----------------
A|-----------------
E|-----------------

E|-----------------------------
B|--5-----5--------------------
G|-----7-----7--5--4hp5-------
D|-----------------------------7--
A|-----------------------------
E|-----------------------------

E|-----------------
B|--5-----5--------
G|-----7-----7--5--
D|-----------------
A|-----------------
E|-----------------

E|-----------------------------------
B|--5-----5--6--5-----------5--5--5--
G|-----7-------------7--5--------------
D|----------------------------7-----------
A|-----------------------------------
E|-----------------------------------


E|-----------------------
B|----------------3--3--3--
G|-----------------------
D|--5--5--5--5-----------
A|-----------------------
E|-----------------------

E|--------------
B|--------------
G|--5--4--------
D|----------5\7--
A|--------------
E|--------------

===========================================

E|-----------------
B|--5-----5--------
G|-----7-----7--5--
D|-----------------
A|-----------------
E|-----------------

E|--------------------------
B|--5-----5-----------------
G|-----7-----7--5--4--------
D|----------------------7--7--
A|--------------------------
E|--------------------------

E|-----------------
B|--5-----5--------
G|-----7-----7--5--
D|-----------------
A|-----------------
E|-----------------

E|-----------------------------------
B|--5-----5--6--5----------------5--5--5--
G|-----7--------------7--5--------------
D|-----------------------------7-----------
A|-----------------------------------
E|-----------------------------------


E|-----------------------
B|----------------3--3--3--
G|-----------------------
D|--5--5--5--5-----------
A|-----------------------
E|-----------------------

E|--------------
B|--------------
G|--5--4--------
D|--------------
A|--------------
E|--------------


( MALE )

E|-----------------------------------------
B|----------------------------------------
G|--4--5--4-----4--5--------5--4------
D|-------------7--------7-------------5--
A|--------------------------7-------------
E|----------------------------------------

E|-----------------------------------------
B|----------------------------------------
G|--4--5--4-----4--5----------5--4-----
D|-----------7-----------5---------------5--
A|----------------------------7-----------
E|-----------------------------------------


E|-------------------------------------------------
B|-------------------------------------------------
G|--4--5--4------------5--5--5---------5--5--5--
D|-------------7--5---3------------3--3-----------
A|-------------------------------------------------
E|--------------------------------------------------

E|--------------------------------------------------
B|--------------------------------------------------
G|--4--5--4--5--4-----4--5--4--5--4-----------------
D|----------------------5-------------------7---5h7--5h7--
A|--------------------------------------------------
E|--------------------------------------------------


(FEMALE)

E|------------------------------------------------------
B|--12-13-12------12-13-----------13-12----------
G|----------------14----------14------------------12--
D|-----------------------------------14----------------
A|------------------------------------------------------
E|-----------------------------------------------------


E|-------------------------------------------------
B|--12-13-12----12-13--------13-12----------
G|----------------14-------12---------------12--
D|-------------------------------14----------------
A|--------------------------------------------------
E|--------------------------------------------------

E|---------------------------------------------------------------
B|--12-13-12--------------13-13-13-----------13-13-13---
G|-------------14-12-------------------------------------------
D|------------------------15----------------15-15--------------
A|---------------------------------------------------------------
E|---------------------------------------------------------------

E|----------------------------
B|--12-13-12-13-12-------
G|--------------------------12--
D|----------------------------
A|----------------------------
E|-----------------------------
-
E|---------------------------------------------
B|--12-13-12-13-12------------------------
G|------------------------14-12h14-12h14--
D|----------------------------------------------
A|------------------------------------------------
E|-----------------------------------------------


REPEAT ACCORDING TO SONG STRUCTURE

FEEL FREE TO ASK YOUR DOUBTS IN COMMENT SECTION BELOW.

THANKS


#FUXiNO

Comments

  1. Where Is the tabs for senorita song

    ReplyDelete
  2. Please make a video on tabs for senorita song. I am not able to understand it

    ReplyDelete
  3. yes please make and also strumming of the chords

    ReplyDelete
  4. Please make a video of this song

    ReplyDelete
  5. Please make a video on tabs of senorita

    ReplyDelete
  6. Pl make a vedio on tabs on semorita song Pl Pl Pl need it

    ReplyDelete

Post a Comment

Populer Posts

Despacito Guitar Tabs/Lead Lesson in Hindi | Luis Fonsi | Daddy Yankee | Justin Bieber

Channa Mereya-Ae dil hai mushkil Tabs with intro

O O JANE JANA GUITAR TABS SINGLE STRING AND MULTISTRING