Top 10 English Songs Popular in INDIA & Worldwide - Mashup - Guitar Tabs by Fuxino | FX-MUSIC


WATCH THIS VIDEO FOR BETTER UNDERSTANDING

CHORD USED - Em,C,G,D,Am,Bm,B and B7
Mashup Key -  Em

SUPPORT MY WORK BY DONATING ANYTHING,SIMPLY CLICK ON THIS BLUE PAYTM BUTTON  Donate with



Tip Learn one by one then try to play all songs as a Mashup.


FADED - ALAN WALKER

E|--------------
B|--8--8--8--12-
G|--------------
D|--------------
A|--------------
E|--------------

E|--------------
B|--17-17-17-15-
G|--------------
D|--------------
A|--------------
E|--------------

E|--------------
B|--12-12-12-12-
G|--------------
D|--------------
A|--------------
E|--------------

E|--------------
B|--7--7--7--5--
G|--------------
D|--------------
A|--------------
E|--------------




TAKI TAKI - DJ SNAKE

E|-------------5--7-----5--5--7--------
B|--5--5--8--------8--------------5-----
G|---------------------------------------7--
D|-----------------------------------
A|-----------------------------------
E|-----------------------------------


E|-------------5--7-----5--5--7--------
B|--5--5--8--------8--------------5-----
G|---------------------------------------7--
D|-----------------------------------
A|-----------------------------------
E|-----------------------------------


SHAPE OF YOU - ED SHEERAN

E|--------------------------------------
B|-----8-----------8-----------8-----7--------
G|--9-----9----9-----9----9-----9-----9--7--
D|--------------------------------------
A|--------------------------------------
E|--------------------------------------



MI GENTE -

E|--------7--------
B|-----8-----7--7--
G|--9--------------
D|-----------------
A|-----------------
E|-----------------

E|--------7--------
B|-----8-----7--7--
G|--9--------------
D|-----------------
A|-----------------
E|-----------------


DESPACITO - LUIS FONSI & DADDY YANKEE

E|--------------------------------------------
B|--------------------------------------------
G|--9----------------------------------------
D|-----9-----------------------------------------
A|--------------------------------------------
E|--------------------------------------------

E|--------------------------------------------
B|--------------------------------------------
G|----------------------9--9--9--9--7--9--5--
D|---9--9--9--9--9-----------------------
A|--------------------------------------------
E|--------------------------------------------


E|--------------------------------------
B|--------------------5--5--5--5--7--8-----
G|--5--5--5--5--5-----------------------7--
D|--------------------------------------
A|--------------------------------------
E|--------------------------------------

E|--------------------------------------
B|--------------------8--8--8--8--10-10-7--
G|--7--7--7--7--7-----------------------
D|--------------------------------------
A|--------------------------------------
E|--------------------------------------

E|--------
B|--8--7--
G|--------
D|--------
A|--------
E|--------


CHEAP THRILLS -SIA

E|--------------------------------
B|-----7--8--10-7--8---8-10-7--8--
G|--9-----------------------------
D|--------------------------------
A|--------------------------------
E|--------------------------------

E|-----------------
B|--8--8--8--------
G|-------------7--7--
D|-----------------
A|-----------------
E|-----------------

E|-----------------------------
B|-----7--8--10-7--8--8--10-7--
G|--9--------------------------
D|-----------------------------
A|-----------------------------
E|-----------------------------

E|--------------------
B|-----8--8--8--------
G|--7-----------7--7--
D|--------------------
A|--------------------
E|--------------------


LET ME LOVE YOU - JUSTIN BEIBER & DJ SANKE

E|----------7--7-----------
B|--8--10-------8--8--8--
G|-----------------------
D|-----------------------
A|-----------------------
E|-----------------------

E|-----------7--7-----------
B|--8--10-------7--7--7--
G|-----------------------
D|-----------------------
A|-----------------------
E|-----------------------

E|--8--7--7-----
B|--------------
G|-------------9--
D|--------------
A|--------------
E|--------------

E|--8--7--7-----
B|--------------
G|-------------9--
D|--------------
A|--------------
E|--------------



HAVANA - CAMILA CABELLO

E|-----7--7-----------
B|--8--------8--8-----
G|-----------------9--
D|--------------------
A|--------------------
E|--------------------

E|--7-----7--8--7-----
B|-----10----------10-
G|--------------------
D|--------------------
A|--------------------
E|--------------------

E|------7--7-----------
B|--8--------8--8-----
G|-----------------9--
D|--------------------
A|--------------------
E|--------------------

E|--7-----7--8--7-----
B|-----10----------10-
G|--------------------
D|--------------------
A|--------------------
E|-----------------


E|-----7-----7-----7-----------7-----
B|--8-----8-----10----10--8-----7--
G|--------------------------------
D|--------------------------------
A|--------------------------------
E|--------------------------------


E|--------------
B|--8--7--8--7--
G|--------------
D|--------------
A|--------------
E|--------------



CLOSER - CHAINSMOKER

E|--------------------------------------------------------------------
B|--10-10-12--8-10-10-12---8-10-10-12---8-10-10-8---8-12-12-8---8-10-10-
G|--------------------------------------------------------------------
D|--------------------------------------------------------------------
A|--------------------------------------------------------------------
E|--------------------------------------------------------------------

E|--------------------------------------------------------
B|--8-10-10-12--8-10-10-8---8-12-12-8---8-10-10-8---8-12-
G|--------------------------------------------------------
D|--------------------------------------------------------
A|--------------------------------------------------------
E|--------------------------------------------------------



ON MY WAY - ALAN WALKER

E|--------------------------------
B|--8--8--7-----8--7--7-----------
G|-----------9------------9--7--7--
D|--------------------------------
A|--------------------------------
E|--------------------------------

E|--------------------------------
B|--------------------------------
G|--9--9--7-----9--7--7-----------
D|-----------10------------10-9--9--
A|--------------------------------
E|--------------------------------

E|--------------------------
B|--------------------------
G|------------------------9--9--
D|--10-10-9-7-10-9--------
A|--------------------------
E|--------------------------

E|--------------------
B|--------------------
G|--------------------
D|----------7-----------
A|--10-9-----10-9--7--
E|--------------------







if you have any doubt please let me know in comment section below.

#FUXiNO

Comments

  1. Make tutorial on gratitude by Amin toofani

    ReplyDelete
  2. Plzzzz make a tutorial video for this!!🙏.....for beginners it will be great!!

    ReplyDelete
  3. Tutorial please please I request you

    ReplyDelete
  4. Plzzz Make tutorial please ❤❤❤❤

    ReplyDelete
  5. Tutorial plz
    I like your songs
    I want to learn it
    Plz make tutorial

    ReplyDelete
  6. Plzz provide the tabs of this mashup....or else make a tutorial on this as soon as possible bcoz i have some program in my school and i want to perform this mashup......waiting for the tutorial

    ReplyDelete
  7. SIR PLEASE!! MAKE TUTORIAL ON THIS MASHUP PLEASE!!!!!! SIR.....

    ReplyDelete
  8. Yes sir plz make tutorials of amir toofani (gratitude

    ReplyDelete
  9. Plz give the backing bhai plz

    ReplyDelete
  10. Perfect song lesson 🙏🏻🙏🏻

    ReplyDelete
  11. Where can I find the backing track??

    ReplyDelete
  12. I LIKE THIS IT REALLY VERY MUCH. IT HELPED ME!!!!

    ReplyDelete

Post a Comment

Populer Posts

Despacito Guitar Tabs/Lead Lesson in Hindi | Luis Fonsi | Daddy Yankee | Justin Bieber

Channa Mereya-Ae dil hai mushkil Tabs with intro

O O JANE JANA GUITAR TABS SINGLE STRING AND MULTISTRING