Skip to main content

Posts

Showing posts from November, 2019

Most Used Song (Ummon Hiyonat) in Tik Tok Videos with Shayri - Guitar Tabs by Fuxino | Fxmusic

Please Watch This Video For Better Understanding.


E|-----------------
B|--12-12-11hp12----
G|----------------------13-
D|-----------------
A|-----------------
E|-----------------

E|-----------------
B|--12-12-11hp12----
G|----------------------13-
D|-----------------
A|-----------------
E|-----------------

E|--------------
B|------11-------
G|--13----13-11-
D|--------------
A|--------------
E|--------------

E|--------------------------
B|---------9--11-11--9hp11----
G|--8--11-----------------------11-
D|--------------------------
A|--------------------------
E|--------------------------

E|--------------
B|--11--9hp11----
G|------------------11-
D|--------------
A|--------------
E|--------------

E|--------------
B|--9--9--------
G|----------11-9--
D|--------------
A|--------------
E|--------------

Repeat

E|-----------------
B|--12-12-11hp12----
G|----------------------13-
D|-----------------
A|-----------------
E|-----------------

E|-----------------
B|--12-12-11hp12----
G|------------…

Tum Hi Aana Guitar Tabs with intro, Chords and Backing Track by Fuxino | Jubin Nautiyal | Marjaavaan | FxMusic

Tum Hi Aana Guitar Tabs Lesson with Cover

Tum Hi Aana BACKING TRACK (for practice)

Watch my video for better understanding.


Chords - Em,C,D,Am,Bm

INTRO

E|-----7--7--5--------------
B|--5-----------8--7--8--5--
G|--------------------------
D|--------------------------
A|--------------------------
E|--------------------------

E|-----7--7--5--------------
B|--5-----------8--7--8--5--
G|--------------------------
D|--------------------------
A|--------------------------
E|--------------------------

E|-5----5--5-----------------
B|-------------8--7--5--7-----
G|---7-----------------------7--
D|--------------------------
A|--------------------------
E|--------------------------


E|--------------------
B|-------------7--8--5--
G|--7--5--7-----------
D|--------------------
A|--------------------
E|--------------------


TERE JAANE KA GUM

E|--12-10----10-------
B|----------13----13-12-
G|--------------------
D|--------------------
A|--------------------
E|--------------------


E|--12-10----10-------