Most Used Song (Ummon Hiyonat) in Tik Tok Videos with Shayri - Guitar Tabs by Fuxino | Fxmusic




Please Watch This Video For Better Understanding.


E|-----------------
B|--12-12-11hp12----
G|----------------------13-
D|-----------------
A|-----------------
E|-----------------

E|-----------------
B|--12-12-11hp12----
G|----------------------13-
D|-----------------
A|-----------------
E|-----------------

E|--------------
B|------11-------
G|--13----13-11-
D|--------------
A|--------------
E|--------------

E|--------------------------
B|---------9--11-11--9hp11----
G|--8--11-----------------------11-
D|--------------------------
A|--------------------------
E|--------------------------

E|--------------
B|--11--9hp11----
G|------------------11-
D|--------------
A|--------------
E|--------------

E|--------------
B|--9--9--------
G|----------11-9--
D|--------------
A|--------------
E|--------------

Repeat

E|-----------------
B|--12-12-11hp12----
G|----------------------13-
D|-----------------
A|-----------------
E|-----------------

E|-----------------
B|--12-12-11hp12----
G|----------------------13-
D|-----------------
A|-----------------
E|-----------------

E|--------------
B|------11-------
G|--13----13-11-
D|--------------
A|--------------
E|--------------

E|--------------------------
B|---------9--11-11--9hp11----
G|--8--11-----------------------11-
D|--------------------------
A|--------------------------
E|--------------------------

E|--------------
B|--11--9hp11----
G|------------------11-
D|--------------
A|--------------
E|--------------

E|--------------
B|--9--9--------
G|---------11-9--
D|--------------
A|--------------
E|--------------


Comments

Post a comment

Popular posts from this blog

Single String Guitar Songs Mashup - 10 Arijit Singh Songs | Easy One String Bollywood Hindi Songs Guitar Tabs

Tum Hi Aana Guitar Tabs with intro, Chords and Backing Track by Fuxino | Jubin Nautiyal | Marjaavaan | FxMusic

Tujhe Kitna Chahne Lage Hum Guitar Tabs Lesson w/ Cover & Chords | KABIR SINGH | FUXiNO