GUITAR MINI COURSE BOOK FOR ABSOLUTE BEGINNERS by FUXiNO | FX-MUSIC STORE

Image
GUITAR MINI COURSE FRO ABSOLUTE BEGINNERS
CLICK HERE

Guitar is very popular and most loved instrument of all time, everyone wants to learn guitar but only a few of them are able to do it, because people do not know how to solve the difficulties in the initial stage of learning, so they fed up and stop learning. But if you have a proper guidance you can easily learn the guitar. Many of you start learning guitar from YouTube videos but it takes a lot of time to find a good tutorials at one place. So, you should take this mini course and It will definitely give you all basics of guitar in one book which will save your time and you will feel confident.
About This Mini Guitar Book This book is made for those who has just started playing guitar, and I have shared all the basics in this one mini guitar course book with few tips for absolute beginners. It will save your time and you will feel confident after reading this book.
NOTE - I have covered only basic concepts in this book, it is not …

Tum Hi Aana Guitar Tabs with intro, Chords and Backing Track by Fuxino | Jubin Nautiyal | Marjaavaan | FxMusic

Tum Hi Aana Guitar Tabs Lesson with Cover


Tum Hi Aana BACKING TRACK (for practice)


Watch my video for better understanding.


Chords - Em,C,D,Am,Bm

INTRO

E|-----7--7--5--------------
B|--5-----------8--7--8--5--
G|--------------------------
D|--------------------------
A|--------------------------
E|--------------------------

E|-----7--7--5--------------
B|--5-----------8--7--8--5--
G|--------------------------
D|--------------------------
A|--------------------------
E|--------------------------

E|-5----5--5-----------------
B|-------------8--7--5--7-----
G|---7-----------------------7--
D|--------------------------
A|--------------------------
E|--------------------------


E|--------------------
B|-------------7--8--5--
G|--7--5--7-----------
D|--------------------
A|--------------------
E|--------------------


TERE JAANE KA GUM

E|--12-10----10-------
B|----------13----13-12-
G|--------------------
D|--------------------
A|--------------------
E|--------------------


E|--12-10----10-------
B|----------13----13-12-
G|--------------------
D|--------------------
A|--------------------
E|--------------------


E|--12-10----10----------------------------------
B|----------13----13-12---10------10--10\12--
G|--------------------------------12--------
D|-------------------------------------------
A|-------------------------------------------
E|-------------------------------------------


BAHUT AAAAIIIII........

E|--------------------
B|--------------------
G|---------------11-12-9--
D|--9--9--12----------
A|--------------------
E|--------------------


E|-----------------------
B|-----------------------
G|--9--9--9h11--9-------9\11-
D|--------------------12-------
A|-----------------------
E|-----------------------


E|-----------------------
B|--12-12-10-13-12-------
G|-----------------------12-11-
D|-----------------------
A|-----------------------
E|-----------------------


E|--------------------
B|------10-------------
G|--11----12-11/9--9--
D|--------------------
A|--------------------
E|--------------------


E|--------------------
B|--------------------
G|---------------11-12-9--
D|--9--9--12----------
A|--------------------
E|--------------------


E|-----------------------
B|-----------------------
G|--9--9--9h11--9-------9\11-
D|--------------------12-------
A|-----------------------
E|-----------------------


E|-----------------------
B|--12-12-10-13-12-------
G|-----------------------12-11-
D|-----------------------
A|-----------------------
E|-----------------------


E|--------------------
B|------10-------------
G|--11----12-11/9--9--
D|--------------------
A|--------------------
E|--------------------

REPEAT (INTRO)

E|-----7--7--5--------------
B|--5-----------8--7--8--5--
G|--------------------------
D|--------------------------
A|--------------------------
E|--------------------------

E|-----7--7--5--------------
B|--5-----------8--7--8--5--
G|--------------------------
D|--------------------------
A|--------------------------
E|--------------------------

E|-5----5--5-----------------
B|-------------8--7--5--7-----
G|---7-----------------------7--
D|--------------------------
A|--------------------------
E|--------------------------


E|--------------------
B|-------------7--8--5--
G|--7--5--7-----------
D|--------------------
A|--------------------
E|--------------------


KOI TO .....

E|--------------10-
B|--12-12-13----
G|--------------
D|--------------
A|--------------
E|--------------


E|------12-10----------
B|--13--------13-12-10-10
G|--------------------
D|--------------------
A|--------------------
E|--------------------



E|-----------------------12-10-----12-10-------
B|--10-10-12-13-13----------13----------13-12-12-
G|--------------------------------------
D|--------------------------------------
A|--------------------------------------
E|--------------------------------------


E|--------------10-
B|--12-12-13----
G|--------------
D|--------------
A|--------------
E|--------------


E|------12-10----------
B|--13--------13-12-10-10
G|--------------------
D|--------------------
A|--------------------
E|--------------------



E|-----------------------12-10-----12-10-------
B|--10-10-12-13-13----------13----------13-12-12-
G|--------------------------------------
D|--------------------------------------
A|--------------------------------------
E|--------------------------------------


E|--------------------
B|--10---------------
G|-------12--11-----
D|--------------------
A|--------------------
E|-------------------


E|--------------------
B|--------------------
G|---------------11-12-9--
D|--9--9--12----------
A|--------------------
E|--------------------


E|-----------------------
B|-----------------------
G|--9--9--9h11--9-------9\11-
D|--------------------12-------
A|-----------------------
E|-----------------------


E|-----------------------
B|--12-12-10-13-12-------
G|-----------------------12-11-
D|-----------------------
A|-----------------------
E|-----------------------


E|--------------------
B|------10-------------
G|--11----12-11/9--9--
D|--------------------
A|--------------------
E|--------------------


E|--------------------
B|--------------------
G|---------------11-12-9--
D|--9--9--12----------
A|--------------------
E|--------------------


E|-----------------------
B|-----------------------
G|--9--9--9h11--9-------9\11-
D|--------------------12-------
A|-----------------------
E|-----------------------


E|-----------------------
B|--12-12-10-13-12-------
G|-----------------------12-11-
D|-----------------------
A|-----------------------
E|-----------------------


E|--------------------
B|------10-------------
G|--11----12-11/9--9--
D|--------------------
A|--------------------
E|--------------------

Repeat if required


if you have any doubt feel free to ask in comment section below.

Thank You

#FUXiNO

Comments

  1. Can you please provide these tabs in c scale

    ReplyDelete
  2. Sir I want to notes and cords the song of "stay a little longer with me"" From the movie h"girlfriend" so please make a lesson on this song

    ReplyDelete
  3. Sir can u please provide us the tabs and backing track of "love me like you do"....
    Please sir...

    ReplyDelete
  4. Bro I need aadat single string full tabs. If that's not possible than on E &B strings aadat full song

    ReplyDelete
  5. Si Tumi song ar tabs diben viya please

    ReplyDelete
  6. Lyrics missing here
    "Meri dehleez se" this part is missing

    ReplyDelete
  7. I need the backing track how can i get that

    ReplyDelete
  8. Sir a big thanks to you. These tabs really helped me very much sir thanks.

    ReplyDelete
  9. Sir I like you great job your tab help me so much..

    ReplyDelete
  10. Very Brilliant Sir I had alredy learned 3 songs and this is 4th one from your site ๐ŸคŸ๐ŸคŸ๐ŸคŸ๐Ÿ˜„๐Ÿ˜„

    ReplyDelete
  11. Tq so much bro it's really easy nd it's very helpfull keep it up this great job tq again.

    ReplyDelete

Post a comment

Populer Posts

Despacito Guitar Tabs/Lead Lesson in Hindi | Luis Fonsi | Daddy Yankee | Justin Bieber

O O JANE JANA GUITAR TABS SINGLE STRING AND MULTISTRING