Skip to main content

Posts

Showing posts from December, 2019

Yaad Piya Ki Aane Lagi Guitar Tabs and Chords with intro and all Solo By Fuxino | Fxmusic | Faisu | Neha Kakkar | Divya Kumar

Yaad Piya Ki Aane Lagi Bheegi Bheegi Raaton Mein Full Song Guitar Tabs,Chords,intro and all Solo Notes by Fuxino
CHORDS - Em,D,C,Bm  (Capo on 1st Fret)

TABS

INTRO
E|--8-----------------------------
B|-----9---9\11----8---8h9--8-----
G|----------------10--------------8--
D|--------------------------------
A|--------------------------------
E|--------------------------------


E|--8-----------------------------
B|-----9---9\11----8---8h9--8-----
G|----------------10--------------8--
D|--------------------------------
A|--------------------------------
E|--------------------------------

WATCH THIS TUTORIAL VIDEO IF YOU ARE GETTING CONFUSED



Aasmaa me ,,,,,,
E|--8--------------------------------------
B|-----8--8--8--------------------8--8--8-----
G|---------------10-10-8------8-----------10-
D|-------------------------10----------------
A|-----------------------------------------
E|-----------------------------------------

E|-----8--8-----------------------------------
B|-----------8--8-----…

Kaise Hua Guitar Tabs, Chords with Electric Guitar SOLO by Fuxino | FX-MUSIC

CHORDS - Bm,F#m,G,A,D,Em


E|-----------------------------
B|--3-----3-----3-----3-----3--
G|-----4-----4-----4-----4-----
D|-----------------------------
A|-----------------------------
E|-----------------------------

E|-----------------------------
B|--3-----3-----3-----3-----3--
G|-----4-----4-----4-----4-----
D|-----------------------------
A|-----------------------------
E|-----------------------------


E|-----------
B|--2--------
G|-----4--2--
D|-----------
A|-----------
E|-----------


E|-----------------------------
B|--3-----3-----3-----3-----3--
G|-----4-----4-----4-----4-----
D|-----------------------------
A|-----------------------------
E|-----------------------------

E|-----------------------------
B|--3-----3-----3-----3-----3--
G|-----4-----4-----4-----4-----
D|-----------------------------
A|-----------------------------
E|-----------------------------


E|-----------
B|--2--------
G|-----4--2--
D|-----------
A|-----------
E|-----------


E|--------------
B|-----2--3-----
G|--…

Kabir Singh Theme Music (Full Song BGM) - Electric Guitar Cover By Fuxino | FX-Music

Kabir singh theme music full song mass bgm (background music of movie and trailer) - electric guitar cover by fuxino. In this video i have played kabir singh theme song or Arjun reddy theme song nusic on electric guitar to make its sound like original and many of you were requesting me for this kabir singh theme music cover video and few were asking to play it on acoustic guitar with tutorial, so if i got good response and your huge comments i will try to arrange this kabir singh theme music on acoustic guitar.
Leave your Comments below and give me a Like and please Share this video.
FUXiNO