Kaise Hua Guitar Tabs, Chords with Electric Guitar SOLO by Fuxino | FX-MUSIC


CHORDS - Bm,F#m,G,A,D,Em


E|-----------------------------
B|--3-----3-----3-----3-----3--
G|-----4-----4-----4-----4-----
D|-----------------------------
A|-----------------------------
E|-----------------------------

E|-----------------------------
B|--3-----3-----3-----3-----3--
G|-----4-----4-----4-----4-----
D|-----------------------------
A|-----------------------------
E|-----------------------------


E|-----------
B|--2--------
G|-----4--2--
D|-----------
A|-----------
E|-----------


E|-----------------------------
B|--3-----3-----3-----3-----3--
G|-----4-----4-----4-----4-----
D|-----------------------------
A|-----------------------------
E|-----------------------------

E|-----------------------------
B|--3-----3-----3-----3-----3--
G|-----4-----4-----4-----4-----
D|-----------------------------
A|-----------------------------
E|-----------------------------


E|-----------
B|--2--------
G|-----4--2--
D|-----------
A|-----------
E|-----------


E|--------------
B|-----2--3-----
G|--4--------4--
D|--------------
A|--------------
E|--------------


E|--------------
B|--3--2--------
G|--------4--2--
D|--------------
A|--------------
E|--------------


E|--------------
B|-----2--3-----
G|--4--------4--
D|--------------
A|--------------
E|--------------


E|-----------------
B|-----3--2--------
G|--4--------4--2--
D|-----------------
A|-----------------
E|-----------------



E|--------------
B|-----2--3-----
G|--4--------4--
D|--------------
A|--------------
E|--------------



E|-----------------
B|--------2--3-----
G|--4--4--------4--
D|-----------------
A|-----------------
E|-----------------


E|--------------------
B|-----2--3---5\7--5--
G|--4-----------------
D|--------------------
A|--------------------
E|--------------------


E|-----------
B|--10-7-----
G|---------9--
D|-----------
A|-----------
E|-----------


KAISE HUA
E|--------------
B|--10-10-7-----
G|--------------9--
D|--------------
A|--------------
E|--------------


E|--------------
B|--10-10-7-----
G|----------------9--
D|--------------
A|--------------
E|--------------


E|--------------
B|--------------
G|--7--7--9--7--
D|--------------
A|--------------
E|--------------


E|--------------
B|-----7--8--7--
G|--9-----------
D|--------------
A|--------------
E|--------------


E|--------------------
B|--------------------
G|--9--7--7--6--------
D|----------------9--7--
A|--------------------
E|--------------------


E|--------------
B|--10-10-7-----
G|-------------9--
D|--------------
A|--------------
E|--------------


E|-----------------
B|--10-10\12-7-----
G|--------------------9--
D|-----------------
A|-----------------
E|-----------------


E|--------------
B|--------------
G|--7--7--9--7--
D|--------------
A|--------------
E|--------------


E|--------------
B|------7--8--7--
G|--9-----------
D|--------------
A|--------------
E|--------------


E|--------------------
B|--------------------
G|--9--7--7--6--------
D|----------------9--7--
A|--------------------
E|--------------------



ELECTRIC GUITAR SOLO (for Acoustic Guitar)
E|--------------------------
B|----------------------10-7-----
G|--9--9--7---9--9---------9--
D|--------------------------
A|--------------------------
E|--------------------------


E|--------------------
B|-----7--7/8-----------
G|--9-----------9--7--9--
D|--------------------
A|--------------------
E|--------------------

E|-----------------------------
B|--------------7--10-10\12-10-
G|--------7--9-----------------
D|--7--9-----------------------
A|-----------------------------
E|-----------------------------

E|-----------10----10-10----10-12-12\14-12/10-10--
B|--10-12----12--------12----------------
G|--------------------------------------
D|--------------------------------------
A|--------------------------------------
E|--------------------------------------


MAI BARISH...

E|--------------------------------------------------
B|--2--3--2--3---2--3--2--3---2--3--2--3---2--3--2--3--
G|--------------------------------------------------
D|--------------------------------------------------
A|--------------------------------------------------
E|--------------------------------------------------


E|--------------------------------------------------
B|--2--2--0--2---2--2--0--2---2--2--0--2---2--0--2--3--
G|--------------------------------------------------
D|--------------------------------------------------
A|--------------------------------------------------
E|--------------------------------------------------


E|--------------------------
B|--------------------------
G|--4--4--2--4--2-----------
D|--------------------4--2--4--
A|--------------------------
E|--------------------------


E|-----------------------------------
B|------------------------------2-----------
G|--4--4--2--4---4--2--4-----4--4--2--
D|-----------------------------------
A|-----------------------------------
E|-----------------------------------

E|--------------------------
B|------5\7--5--5--3--3--2--2--3-3\5-3-2--
G|--2-----------------------
D|--------------------------
A|--------------------------
E|--------------------------



E|--------------
B|-----2--3-----
G|--4--------4--
D|--------------
A|--------------
E|--------------


E|--------------
B|--3--2--------
G|--------4--2--
D|--------------
A|--------------
E|--------------


E|--------------
B|-----2--3-----
G|--4--------4--
D|--------------
A|--------------
E|--------------


E|-----------------
B|-----3--2--------
G|--4--------4--2--
D|-----------------
A|-----------------
E|-----------------



E|--------------
B|-----2--3-----
G|--4--------4--
D|--------------
A|--------------
E|--------------



E|-----------------
B|--------2--3-----
G|--4--4--------4--
D|-----------------
A|-----------------
E|-----------------


E|--------------------
B|-----2--3---5\7--5--
G|--4-----------------
D|--------------------
A|--------------------
E|--------------------


E|-----------
B|--10-7-----
G|----------9--
D|-----------
A|-----------
E|-----------


KAISE HUA
E|--------------
B|--10-10-7-----
G|---------------9--
D|--------------
A|--------------
E|--------------


E|--------------
B|--10-10-7-----
G|-----------------9--
D|--------------
A|--------------
E|--------------


E|--------------
B|--------------
G|--7--7--9--7--
D|--------------
A|--------------
E|--------------


E|--------------
B|-----7--8--7--
G|--9-----------
D|--------------
A|--------------
E|--------------


E|--------------------
B|--------------------
G|--9--7--7--6--------
D|-----------------9--7--
A|--------------------
E|--------------------


E|--------------
B|--10-10-7-----
G|--------------9--
D|--------------
A|--------------
E|--------------


E|-----------------
B|--10-10\12-7-----
G|-------------------9--
D|-----------------
A|-----------------
E|-----------------


E|--------------
B|--------------
G|--7--7--9--7--
D|--------------
A|--------------
E|--------------


E|--------------
B|-----7--8--7--
G|--9-----------
D|--------------
A|--------------
E|--------------


E|--------------------
B|--------------------
G|--9--7--7--6--------
D|------------------9--7--
A|--------------------
E|--------------------






Comments

  1. Thanks Bhai love you from Nagpur

    ReplyDelete
  2. Plz also upload backing track

    ReplyDelete
  3. Bro plz upload backïng track .

    ReplyDelete
  4. 𝓣𝓷𝓴𝓮𝔀 𝓢𝓞 𝓶𝓾𝓬𝓱

    ReplyDelete
  5. Awesome.
    Aapka kam wakehi shandar hai.
    Apse ek chhoti si request hai ki aap jab bhi Kisi bhi song ki tabs apki website par upload karte hai to use hum 1 ya 2 page (A4) me directl print le sake us Tarah ka format rakhe to bahut badi help hogi.
    Thank you.

    ReplyDelete
  6. Thanks bhai 👌👌👍👍

    ReplyDelete
  7. NsckinB track de do bhai...😭😭

    ReplyDelete

Post a comment

Popular posts from this blog

Single String Guitar Songs Mashup - 10 Arijit Singh Songs | Easy One String Bollywood Hindi Songs Guitar Tabs

Tum Hi Aana Guitar Tabs with intro, Chords and Backing Track by Fuxino | Jubin Nautiyal | Marjaavaan | FxMusic

Tujhe Kitna Chahne Lage Hum Guitar Tabs Lesson w/ Cover & Chords | KABIR SINGH | FUXiNO