Yaad Piya Ki Aane Lagi Guitar Tabs and Chords with intro and all Solo By Fuxino | Fxmusic | Faisu | Neha Kakkar | Divya Kumar

Yaad Piya Ki Aane Lagi Bheegi Bheegi Raaton Mein Full Song Guitar Tabs,Chords,intro and all Solo Notes by Fuxino

CHORDS - Em,D,C,Bm  (Capo on 1st Fret)

TABS

INTRO
E|--8-----------------------------
B|-----9---9\11----8---8h9--8-----
G|----------------10--------------8--
D|--------------------------------
A|--------------------------------
E|--------------------------------


E|--8-----------------------------
B|-----9---9\11----8---8h9--8-----
G|----------------10--------------8--
D|--------------------------------
A|--------------------------------
E|--------------------------------

WATCH THIS TUTORIAL VIDEO IF YOU ARE GETTING CONFUSED



Aasmaa me ,,,,,,
E|--8--------------------------------------
B|-----8--8--8--------------------8--8--8-----
G|---------------10-10-8------8-----------10-
D|-------------------------10----------------
A|-----------------------------------------
E|-----------------------------------------

E|-----8--8-----------------------------------
B|-----------8--8---------------------8--8--8-----
G|--10-------------10-10-8------8-----------10-
D|-----------------------------10----------------
A|--------------------------------------------
E|--------------------------------------------

SOLO
E|--------------------------------------8hp9-----------------------
B|----------------9--9---9\11-9--11-------11---9--11-8--9-------8--
G|-------8--10--------------------------------------------------10----
D|--10----------------------------------------------------
A|--------------------------------------------------------
E|--------------------------------------------------------


E|-----------------------------8hp9-------------------------
B|---8\9--9---9\11-9--11----------11-9--11-8--9-----8--
G|------------------------------------------------------10----
D|-----------------------------------------------------
A|-----------------------------------------------------
E|-----------------------------------------------------

AASMA ME....
E|--8--------------------------------------
B|-----8--8--8------------------8--8--8-----
G|--------------10-10-8-----8-----------10-
D|-------------------------10----------------
A|-----------------------------------------
E|-----------------------------------------

E|-----8--8-----------------------------------
B|-----------8--8--------------------8--8--8-----
G|--10-------------10-10-8------8-----------10-
D|-----------------------------10----------------
A|--------------------------------------------
E|--------------------------------------------




E|-----8--8--8--8--9--8-----
B|---------------------------11-
G|--10----------------------
D|--------------------------
A|--------------------------
E|--------------------------



E|-----------------------8--------
B|--11-11-11-11-11----11-9--
G|--------------------------
D|--------------------------
A|--------------------------
E|--------------------------

E|-----8--8--8--11-9--8--------
B|---------------------------11----
G|--10-------------------------
D|-----------------------------
A|-----------------------------
E|-----------------------------


E|-----------------------8--------
B|--11-11-11-11-11----11-9--
G|--------------------------
D|--------------------------
A|--------------------------
E|--------------------------



E|--------------------------------------------
B|--8--8--8--8--8--11-8-----8--8--11-8-----8--
G|--------------------------10-------------10----
D|--------------------------------------------
A|--------------------------------------------
E|--------------------------------------------


E|-----------------------------------
B|-----8--8--11-11-------8--8--11-11-
G|--10-------------10-10-------------
D|-----------------------------------
A|-----------------------------------
E|-----------------------------------

E|--------------------
B|--8-----------8--------
G|-----10-10----10-8--
D|--------------------
A|--------------------
E|--------------------

E|--------------------------
B|-----------8--8--8--------
G|-----8--8-----------10-10-
D|--10----------------------
A|--------------------------
E|--------------------------



E|-----------------
B|-----------------
G|-----8--10-10-10-
D|--10-------------
A|-----------------
E|-----------------

E|-----------------
B|-----------------
G|-----8--10-10-10-
D|--10-------------
A|-----------------
E|-----------------


E|-----------------------
B|-----------------------
G|-----8--10-10-10-10-10-
D|--10-------------------
A|-----------------------
E|-----------------------

SOLO
E|-----------------------------------
B|-----------8--9--8------------6--8--6-----
G|--10-10----------10------8-----------8--
D|-----------------------------------
A|-----------------------------------
E|-----------------------------------


TERE BINA KYA HAAL......
E|-----------------------------------------------------------
B|-----------------------------------------------------8-----------------
G|-----------8--8--8--10-10-10-10-8--8--10-10----10--8-10-8-----
D|--10-10-10----------------------------------------------------------10-
A|-----------------------------------------------------------
E|-----------------------------------------------------------



E|-----------------------------------------------------------
B|-------------------------------------------------8-----------------
G|-----------8--8--8--10-10-10-10-8--8--10----10-10-10-8--10-
D|--10-10-10-------------------------------------------------
A|-----------------------------------------------------------
E|-----------------------------------------------------------


E|-----------------
B|-----------------
G|--10-8--10-8-----
D|--------------10-
A|-----------------
E|-----------------


E|-----------------
B|-----------------
G|--10-8--10-8-----
D|--------------10-
A|-----------------
E|-----------------


E|-----------------
B|-----------------
G|--10-8--10-8-----
D|--------------10-
A|-----------------
E|-----------------




E|-----------------
B|--8--11-9--8-----
G|--------------10-
D|-----------------
A|-----------------
E|-----------------


E|-----------------------------------------------------------
B|-----------------------------------------------------8-----------------
G|-----------8--8--8--10-10-10-10-8--8--10-10----10--8-10-8-----
D|--10-10-10----------------------------------------------------------10-
A|-----------------------------------------------------------
E|-----------------------------------------------------------



E|-----------------------------------------------------------
B|-------------------------------------------------8-----------------
G|-----------8--8--8--10-10-10-10-8--8--10----10-10-10-8--10-
D|--10-10-10-------------------------------------------------
A|-----------------------------------------------------------
E|-----------------------------------------------------------




E|-----8--8--8--8--9--8-----
B|---------------------------11-
G|--10----------------------
D|--------------------------
A|--------------------------
E|--------------------------



E|-----------------------8--------
B|--11-11-11-11-11----11-9--
G|--------------------------
D|--------------------------
A|--------------------------
E|--------------------------

E|-----8--8--8--11-9--8--------
B|---------------------------11----
G|--10-------------------------
D|-----------------------------
A|-----------------------------
E|-----------------------------


E|-----------------------8--------
B|--11-11-11-11-11----11-9--
G|--------------------------
D|--------------------------
A|--------------------------
E|--------------------------



E|--------------------------------------------
B|--8--8--8--8--8--11-8-----8--8--11-8-----8--
G|--------------------------10-------------10----
D|--------------------------------------------
A|--------------------------------------------
E|--------------------------------------------


E|-----------------------------------
B|-----8--8--11-11-------8--8--11-11-
G|--10-------------10-10-------------
D|-----------------------------------
A|-----------------------------------
E|-----------------------------------

E|--------------------
B|--8-----------8--------
G|-----10-10----10-8--
D|--------------------
A|--------------------
E|--------------------

E|--------------------------
B|-----------8--8--8--------
G|-----8--8-----------10-10-
D|--10----------------------
A|--------------------------
E|--------------------------




Comments

  1. Great Work bro.
    can you give online tutorials please yaa.

    ReplyDelete
  2. Sir plz tell me kase guiter play krne ke sate braground music deta ho? Konsi app se ? Plz help me sir

    ReplyDelete
  3. Mujhe guitar sikhi h to mujhe lessons provide kra di jiye plz
    Mene guitar le li bajana ni aati thanku
    WhatsApp 9617102249

    ReplyDelete
  4. Thanks a lot sir 🙏....but pls can you provide online tutorial too...

    ReplyDelete
  5. Nice play ... but pls provide online tutorials...(asap)

    ReplyDelete
  6. Please give its backing track
    Really need it

    ReplyDelete
  7. @fuxino plzz provide this backing track I would be highly obliged....

    ReplyDelete
  8. tabs ka sath song ka lyrics bhi likho

    ReplyDelete
  9. Please provide backing track

    ReplyDelete

Post a Comment

Popular posts from this blog

Single String Guitar Songs Mashup - 10 Arijit Singh Songs | Easy One String Bollywood Hindi Songs Guitar Tabs

Tum Hi Aana Guitar Tabs with intro, Chords and Backing Track by Fuxino | Jubin Nautiyal | Marjaavaan | FxMusic

O Pata Nahi Ji Kaunsa Nasha Karta hai Guitar Tabs & Chords - Titliyan | Hardy Sandhu | Yaar Mera Titliyan Warga | Fx-Music | Fuxino