Posts

Showing posts from 2020

Single String Guitar Songs Mashup - 10 Arijit Singh Songs | Easy One String Bollywood Hindi Songs Guitar Tabs

Image
Single String Guitar Songs Mashup - 10 Arijit Singh Songs | Easy One String Bollywood Hindi Songs Tabs

MASHUP COVER


PiANO COVER


LESSON VIDEO



BACKING TRACK 
(Available on Google Play & i-Tunes)



TABS
KABHI JO BADAL single string guitar tabs
E|--5--7--8--7--8--10-7-- B|----------------------- G|----------------------- D|----------------------- A|----------------------- E|-----------------------
E|--5--7--8--7--8--10-7-- B|----------------------- G|----------------------- D|----------------------- A|----------------------- E|-----------------------

E|--5--7--8--7--8--10-7-- B|----------------------- G|----------------------- D|----------------------- A|----------------------- E|-----------------------

E|--3--5--7--5--3--1--0-- B|----------------------- G|----------------------- D|----------------------- A|----------------------- E|-----------------------

PHIR MOHABBAT single string guitar tabs
E|--0--5--5--5--3--3--5--5--7--7--7--8--8--8\10-10-7--7/5-- B|---------------------------------------…

MALANG Guitar Chords and TABs Lesson with Cover by FUXiNO | FX-MUSIC | Malang Title Track by Aditya Roy Kapoor & Disha Patani

Image
MALANG TITLE TRACK GUITAR CHORDS BY FUXINO WITH INSTRUMENTAL COVER 

CHORD USED - Em,C,G,D,Am (Capo on 3rd fret)


E|--10-10-10-10-10h11-10-10-
B|----------------------------------
G|----------------------------------
D|---------------------------------
A|---------------------------------
E|---------------------------------


E|--10--------------------------------
B|-----13-11-13-10-11-----10----
G|----------------------------12----
D|--------------------------
A|--------------------------
E|--------------------------


E|--10-10-10-10-10h11-10-10-
B|---------------------------------
G|---------------------------------
D|---------------------------------
A|---------------------------------
E|---------------------------------


E|------10---------------------------------
B|--11----13-11-11\13-10--11-10------
G|---------------------------------------------12---
D|------------------------------------------
A|------------------------------------------
E|------------------------------------------


E|…