Posts

Showing posts from 2020

GUITAR MINI COURSE BOOK FOR ABSOLUTE BEGINNERS by FUXiNO | FX-MUSIC STORE

Image
GUITAR MINI COURSE FRO ABSOLUTE BEGINNERS
CLICK HERE

Guitar is very popular and most loved instrument of all time, everyone wants to learn guitar but only a few of them are able to do it, because people do not know how to solve the difficulties in the initial stage of learning, so they fed up and stop learning. But if you have a proper guidance you can easily learn the guitar. Many of you start learning guitar from YouTube videos but it takes a lot of time to find a good tutorials at one place. So, you should take this mini course and It will definitely give you all basics of guitar in one book which will save your time and you will feel confident.
About This Mini Guitar Book This book is made for those who has just started playing guitar, and I have shared all the basics in this one mini guitar course book with few tips for absolute beginners. It will save your time and you will feel confident after reading this book.
NOTE - I have covered only basic concepts in this book, it is not …

MAHABHARAT GUITAR TABS & CHORDS BY FUXINO | MAHABHRAT TITLE THEME SONG GUITAR LESSON | FXMUSIC

Image
NOTE - THESE NOTES ARE ARRANGED FOR BEGINNERS WITHOUT ANY TECHNIQUES (e.g Hammer & Pull Off) , PLEASE WATCH ABOVE VIDEO FOR REFERENCE OR JUST ADD TECHNIQUES ACCORDING TO YOUR COMFORT.

CHORDS
Bm, G, F#, Em, B, D, A

TABS
E|------------------------- B|------------------------- G|--6--6--7--6--6--4-- D|----------------------- A|----------------------- E|------------------------

E|------------------------ B|------------------------ G|--7--7--9--7--7--6-- D|----------------------- A|----------------------- E|------------------------

E|---------------------------------------------- B|---------------------------------------------- G|--9--9--11-12-11-4--4--6--7--9--7--6--- D|--------------------------------------------- A|--------------------------------------------- E|---------------------------------------------

E|---------------------------- B|---------------------------- G|--9--9--11-9--11-9--8-- D|-------------------------- A|--------------------------- E|---------------------------

E|--------------------------- …

Astronomia (Coffin Dance) Guitar Tabs For Beginners by Fuxino | Fxmusic

Image
(WATCH THIS VIDEO FOR COMPLETE UNDERSTANDING)



Note - I have changed positions of few notes to make it more simple with good sound.


TABS

E|-----------------------------------------------------------------------------
B|--------3--------------------------------------------------------------------
G|-----------5--3--2--2--3--5--3--2-----------3--2--3--2--3--------3--2--3--2--3--
D|--5--5------------------------------------5--5---------------------5--5-----------------
A|-----------------------------------------------------------------------------
E|-----------------------------------------------------------------------------


E|-----------------------------------------------------------------------------
B|--------3--------------------------------------------------------------------
G|-----------5--3--2--2--3--5--3--2-----------3--2--3--2--3--------3--2--3--2--3--
D|--5--5------------------------------------5--5---------------------5--5-----------------
A|-----------------------------------…

Genda Phool (Boro Loker Beti Lo) Guitar Tabs & Chords (Main Bengali Line & Melody) by Fuxino | Fxmusic | Badshah ft Jacqueline Fernandez

Image
Genda Phool (Boro Loker Beti Lo) Guitar Tabs & Chords with Cover (Main Bengali Line & Melody) by Fuxino
CHORDS

Only Two Chord Used - D#m & C#


Tabs
(Note - I have tried to write easy notes for you, for better understanding you must watch my video)

(Boro Loker Beti Lo)
E|--------------------------------
B|--4--6---6--6--4--6--4-----
G|-------------------------------6--
D|-------------------------------
A|-------------------------------
E|-------------------------------

E|-------------------------------
B|--4--6--6--6--4--6--4------
G|------------------------------6---
D|-------------------------------
A|------------------------------
E|-------------------------------


E|--------------------------------------------
B|-----------------4--4--6--7--6--4--4--4--4---
G|--3--3--6--6--------------------------------
D|--------------------------------------------
A|--------------------------------------------
E|--------------------------------------------


(Repeat)

E|-----------------------…

Single String Guitar Songs Mashup - 10 Arijit Singh Songs | Easy One String Bollywood Hindi Songs Guitar Tabs

Image
Single String Guitar Songs Mashup - 10 Arijit Singh Songs | Easy One String Bollywood Hindi Songs Tabs

MASHUP COVER


PiANO COVER


LESSON VIDEO



BACKING TRACK 
(Available on Google Play, i-Tunes or Spotify)
(Click This icon)



TABS
KABHI JO BADAL single string guitar tabs
E|--5--7--8--7--8--10-7-- B|----------------------- G|----------------------- D|----------------------- A|----------------------- E|-----------------------
E|--5--7--8--7--8--10-7-- B|----------------------- G|----------------------- D|----------------------- A|----------------------- E|-----------------------

E|--5--7--8--7--8--10-7-- B|----------------------- G|----------------------- D|----------------------- A|----------------------- E|-----------------------

E|--3--5--7--5--3--1--0-- B|----------------------- G|----------------------- D|----------------------- A|----------------------- E|-----------------------

PHIR MOHABBAT single string guitar tabs
E|--0--5--5--5--3--3--5--5--7--7--7--8--8--8\10-10-7--7/5-- B|----------------…

MALANG Guitar Chords and TABs Lesson with Cover by FUXiNO | FX-MUSIC | Malang Title Track by Aditya Roy Kapoor & Disha Patani

Image
MALANG TITLE TRACK GUITAR CHORDS BY FUXINO WITH INSTRUMENTAL COVER 

CHORD USED - Em,C,G,D,Am (Capo on 3rd fret)


E|--10-10-10-10-10h11-10-10-
B|----------------------------------
G|----------------------------------
D|---------------------------------
A|---------------------------------
E|---------------------------------


E|--10--------------------------------
B|-----13-11-13-10-11-----10----
G|----------------------------12----
D|--------------------------
A|--------------------------
E|--------------------------


E|--10-10-10-10-10h11-10-10-
B|---------------------------------
G|---------------------------------
D|---------------------------------
A|---------------------------------
E|---------------------------------


E|------10---------------------------------
B|--11----13-11-11\13-10--11-10------
G|---------------------------------------------12---
D|------------------------------------------
A|------------------------------------------
E|------------------------------------------


E|…

GUITAR MINI COURSE BOOK FOR ABSOLUTE BEGINNERS by FUXiNO | FX-MUSIC STORE

Image
GUITAR MINI COURSE FRO ABSOLUTE BEGINNERS
CLICK HERE

Guitar is very popular and most loved instrument of all time, everyone wants to learn guitar but only a few of them are able to do it, because people do not know how to solve the difficulties in the initial stage of learning, so they fed up and stop learning. But if you have a proper guidance you can easily learn the guitar. Many of you start learning guitar from YouTube videos but it takes a lot of time to find a good tutorials at one place. So, you should take this mini course and It will definitely give you all basics of guitar in one book which will save your time and you will feel confident.
About This Mini Guitar Book This book is made for those who has just started playing guitar, and I have shared all the basics in this one mini guitar course book with few tips for absolute beginners. It will save your time and you will feel confident after reading this book.
NOTE - I have covered only basic concepts in this book, it is not …