MALANG Guitar Chords and TABs Lesson with Cover by FUXiNO | FX-MUSIC | Malang Title Track by Aditya Roy Kapoor & Disha Patani

MALANG TITLE TRACK GUITAR CHORDS BY FUXINO WITH INSTRUMENTAL COVER 


CHORD USED - Em,C,G,D,Am (Capo on 3rd fret)


E|--10-10-10-10-10h11-10-10-
B|----------------------------------
G|----------------------------------
D|---------------------------------
A|---------------------------------
E|---------------------------------


E|--10--------------------------------
B|-----13-11-13-10-11-----10----
G|----------------------------12----
D|--------------------------
A|--------------------------
E|--------------------------


E|--10-10-10-10-10h11-10-10-
B|---------------------------------
G|---------------------------------
D|---------------------------------
A|---------------------------------
E|---------------------------------


E|------10---------------------------------
B|--11----13-11-11\13-10--11-10------
G|---------------------------------------------12---
D|------------------------------------------
A|------------------------------------------
E|------------------------------------------


E|----------------------------------------------------
B|--11-11-11-11-13-11-11-11-10-10-10-13-10-
G|----------------------------------------------------
D|----------------------------------------------------
A|---------------------------------------------------
E|---------------------------------------------------


E|------------------------------------------------
B|--11-10hp11---------------------------------
G|------------------12-10-12-12-12-10-12\14-
D|------------------------------------------------
A|-----------------------------------------------
E|------------------------------------------------


E|-------------------------------------------------
B|--11-10hp11----------------------------------
G|------------------12-10-12-12-12-10-12\14-
D|-------------------------------------------------
A|------------------------------------------------
E|-------------------------------------------------


E|-------------------------------------------------
B|--11-10hp11----------------------------------
G|------------------12-10-12-12-12-10-12\14-
D|------------------------------------------------
A|------------------------------------------------
E|-------------------------------------------------



E|-----------------------------------
B|----------------13-13-15-11-10-
G|--14-15-15---------------------
D|-----------------------------------
A|----------------------------------
E|-----------------------------------



E|-----------------------------10-------
B|--11-11-13-13-11-11----13-11-
G|-----------------------------
D|-----------------------------
A|-----------------------------
E|-----------------------------



E|--------------------------------
B|--11-13-11-13-11-13-11-13-11-10-
G|--------------------------------
D|--------------------------------
A|--------------------------------
E|--------------------------------


E|-----------------------------10-------
B|--11-11-13-13-11-11----13-11-
G|-----------------------------
D|-----------------------------
A|-----------------------------
E|-----------------------------


E|--------------------------------
B|--11-15-11-13-11-15-11-13-11-10-
G|--------------------------------
D|--------------------------------
A|--------------------------------
E|--------------------------------

Repeat above lines.

Comments

  1. Thank you sir..... Lots of respect sir... thank you for the tabs..thanks a lot

    ReplyDelete
  2. Thanks Bhaiya for this easy tabs

    ReplyDelete
  3. Can u place the strumming pattern?

    ReplyDelete
  4. Thank u sir ...loved it...u r really great ...great inspiration for me...waiting for more dhamakas

    ReplyDelete
  5. There are some error in tabs

    ReplyDelete
  6. Sir please HUMRAAH tabs plzz sir it's request sir

    ReplyDelete
  7. Sir can you please make a tutorial video of it in youtube

    ReplyDelete
  8. sir pls share the the whole lesson 🙏

    ReplyDelete
  9. Sir plz share complete lesson with sliding...

    ReplyDelete
  10. Bhaiya strumming pattern pls

    ReplyDelete
  11. Can u give background musics for all the songs

    ReplyDelete

Post a Comment

Popular posts from this blog

Tum Hi Aana Guitar Tabs with intro, Chords and Backing Track by Fuxino | Jubin Nautiyal | Marjaavaan | FxMusic

Single String Guitar Songs Mashup - 10 Arijit Singh Songs | Easy One String Bollywood Hindi Songs Guitar Tabs

O O JANE JANA GUITAR TABS SINGLE STRING AND MULTISTRING