GUITAR MINI COURSE BOOK FOR ABSOLUTE BEGINNERS by FUXiNO | FX-MUSIC STORE

Image
GUITAR MINI COURSE FRO ABSOLUTE BEGINNERS
CLICK HERE

Guitar is very popular and most loved instrument of all time, everyone wants to learn guitar but only a few of them are able to do it, because people do not know how to solve the difficulties in the initial stage of learning, so they fed up and stop learning. But if you have a proper guidance you can easily learn the guitar. Many of you start learning guitar from YouTube videos but it takes a lot of time to find a good tutorials at one place. So, you should take this mini course and It will definitely give you all basics of guitar in one book which will save your time and you will feel confident.
About This Mini Guitar Book This book is made for those who has just started playing guitar, and I have shared all the basics in this one mini guitar course book with few tips for absolute beginners. It will save your time and you will feel confident after reading this book.
NOTE - I have covered only basic concepts in this book, it is not …

Single String Guitar Songs Mashup - 10 Arijit Singh Songs | Easy One String Bollywood Hindi Songs Guitar Tabs

Single String Guitar Songs Mashup - 10 Arijit Singh Songs | Easy One String Bollywood Hindi Songs Tabs


 MASHUP COVER



PiANO COVER



LESSON VIDEO




BACKING TRACK 

(Available on Google Play, i-Tunes or Spotify)

(Click This icon)
                




TABS

KABHI JO BADAL single string guitar tabs

E|--5--7--8--7--8--10-7--
B|-----------------------
G|-----------------------
D|-----------------------
A|-----------------------
E|-----------------------

E|--5--7--8--7--8--10-7--
B|-----------------------
G|-----------------------
D|-----------------------
A|-----------------------
E|-----------------------


E|--5--7--8--7--8--10-7--
B|-----------------------
G|-----------------------
D|-----------------------
A|-----------------------
E|-----------------------


E|--3--5--7--5--3--1--0--
B|-----------------------
G|-----------------------
D|-----------------------
A|-----------------------
E|-----------------------


PHIR MOHABBAT single string guitar tabs

E|--0--5--5--5--3--3--5--5--7--7--7--8--8--8\10-10-7--7/5--
B|-----------------------------------------------------------
G|-----------------------------------------------------------
D|-----------------------------------------------------------
A|-----------------------------------------------------------
E|-----------------------------------------------------------

E|--0--5--5--5--3--3--5--5--7--7--7--8--8--8\10-10-7--7/5--
B|-----------------------------------------------------------
G|-----------------------------------------------------------
D|-----------------------------------------------------------
A|-----------------------------------------------------------
E|-----------------------------------------------------------




KHAIRIYAT single string guitar tabs

E|--5--3--5--7\8--7--
B|--------------------
G|--------------------
D|--------------------
A|--------------------
E|--------------------


E|--8--7hp8--5--3--5--3--5--7\8--7--
B|-----------------------------------
G|-----------------------------------
D|-----------------------------------
A|-----------------------------------
E|-----------------------------------


E|--8--7hp8--5--3--3--2--3--8--7--
B|-----------------------------------
G|-----------------------------------
D|-----------------------------------
A|-----------------------------------
E|-----------------------------------


E|--3--1--3--1--0--
B|-----------------
G|-----------------
D|-----------------
A|-----------------
E|-----------------


SANAM RE single string guitar tabs

E|--3--3--3--3\5--8--8--8--7--3--3--5--7--3--8--7--5--5--5--
B|-----------------------------------------------------------
G|-----------------------------------------------------------
D|-----------------------------------------------------------
A|-----------------------------------------------------------
E|-----------------------------------------------------------


E|--5--0--5--7--8--7--8\10-8--7--8--7--5--3--
B|-----------------------------------------
G|-----------------------------------------
D|-----------------------------------------
A|-----------------------------------------
E|-----------------------------------------

E|--3\5--0--5--7--8--7--8\10-8--7--8--7--5--
B|--------------------------------------
G|--------------------------------------
D|--------------------------------------
A|--------------------------------------
E|--------------------------------------


CHAHUN MAIN YA NA single string guitar tabs

E|--0--8--7--8--8--7--5--7--7--5--3--3--5--5\7--5--5--5--
B|-----------------------------------------------------
G|-----------------------------------------------------
D|-----------------------------------------------------
A|-----------------------------------------------------
E|-----------------------------------------------------

E|--0--8--7--8--8--7--5--7--7--5--3--3--5--5\7--5--5--5--
B|-----------------------------------------------------
G|-----------------------------------------------------
D|-----------------------------------------------------
A|-----------------------------------------------------
E|-----------------------------------------------------


BATON KO TERI single string guitar tabs

E|--0--5--7--7\8--8--7--5--5\7--5--5--3--3--3--5--5--7--7--7--5--7--8--7--7--5--
B|-----------------------------------------------------------------------------
G|-----------------------------------------------------------------------------
D|-----------------------------------------------------------------------------
A|-----------------------------------------------------------------------------
E|-----------------------------------------------------------------------------

E|--3--3--5--5\7--7--7--5--7\8--7--7--5-------------------------------
B|-----------------------------------------------------------------------------
G|-----------------------------------------------------------------------------
D|-----------------------------------------------------------------------------
A|-----------------------------------------------------------------------------
E|-----------------------------------------------------------------------------

SUNO NA SANGEMARMAR single string guitar tabs

E|--5--5--7--8--10-8--7--
B|-----------------------
G|-----------------------
D|-----------------------
A|-----------------------
E|-----------------------


E|--10-8--7--5--
B|--------------
G|--------------
D|--------------
A|--------------
E|--------------

E|--5--3--1--0--5--
B|-----------------
G|-----------------
D|-----------------
A|-----------------
E|-----------------



E|--5--5--7--8--10-8--7--
B|-----------------------
G|-----------------------
D|-----------------------
A|-----------------------
E|-----------------------


E|--10-8--7--5--
B|--------------
G|--------------
D|--------------
A|--------------
E|--------------

E|--5--3--1--0--5--
B|-----------------
G|-----------------
D|-----------------
A|-----------------
E|-----------------

PHIR BHI TUMKO CHAHUNGA single string guitar tabs

E|---5\8--8--10-7--5--3--5--7--
B|-----------------------------
G|-----------------------------
D|-----------------------------
A|-----------------------------
E|-----------------------------


E|--8--8--10-7--5--5/3--1hp3--0--
B|-----------------------------------
G|-----------------------------------
D|-----------------------------------
A|-----------------------------------
E|-----------------------------------


E|--8--8--10-7--5--3--5--7--
B|--------------------------
G|--------------------------
D|--------------------------
A|--------------------------
E|--------------------------


E|--8--8--10-7--5--5/3--1hp3---0--
B|-----------------------------------
G|-----------------------------------
D|-----------------------------------
A|-----------------------------------
E|-----------------------------------



NASHE SI CHAD GAI single string guitar tabs

E|--5--7--8--7--5--7\8--8--7--5--7--8--7--5--
B|--------------------------------------------
G|--------------------------------------------
D|--------------------------------------------
A|--------------------------------------------
E|--------------------------------------------


E|--3--5--7--5--3--5\7--
B|-----------------------
G|-----------------------
D|-----------------------
A|-----------------------
E|-----------------------

E|--8--7--5--7--8--7--5--
B|-----------------------
G|-----------------------
D|-----------------------
A|-----------------------
E|-----------------------

E|--5--7--8--8--7--8--10-10-12-12-13-12-10-
B|-----------------------------------------
G|-----------------------------------------
D|-----------------------------------------
A|-----------------------------------------
E|-----------------------------------------

TUM HI HO single string guitar tabs

E|--10\12---8---8\10-
B|-----------------
G|-----------------
D|-----------------
A|-----------------
E|-----------------


E|--8--10-12-10-8--10-
B|--------------------
G|--------------------
D|--------------------
A|--------------------
E|--------------------


E|--7--10-8--7--5--7--3--5--
B|--------------------------
G|--------------------------
D|--------------------------
A|--------------------------
E|--------------------------


IF YOU HAVE ANY DOUBT PLEASE LEAVE YOUR COMMENT BELOW.

#FUXiNO


Comments

  1. pls give tabs of this mashup pls fast

    ReplyDelete
  2. Osm video pls give the tabs of this mashup .

    ReplyDelete
  3. Plzzzzzzzzzzzzzzzzzzzzzzzzzzzzzzzzzzzzzzzz need it before valentine day plz sir

    ReplyDelete
  4. Please send sir tabs before 14 feb

    ReplyDelete
  5. Please I want tabs it's amazing

    ReplyDelete
  6. Where is the backing track?

    ReplyDelete
  7. Where is the backing track?

    ReplyDelete
  8. Plzz upload backing track I am in urgent need plzz sir

    ReplyDelete
  9. please put khariyat tabs of full song

    ReplyDelete
  10. Bhai backing track for this mashup ?

    ReplyDelete
  11. Please give tabs on mera wala sardar please

    ReplyDelete
  12. Can you please upload a video for love me like you do tabs

    ReplyDelete
  13. Baton OK Teri tabs tabs kuch zyda lag raha hai

    ReplyDelete
  14. I am not geting nacking track

    ReplyDelete
  15. pls give free backing tracks

    ReplyDelete
  16. Pls give free backing tracks

    ReplyDelete
  17. Please send more single string mashups

    Helpful
    Thanks a lot πŸ‘πŸ‘ŒπŸ˜€πŸ˜Š

    ReplyDelete
  18. Sir amazing mashup
    πŸ˜ŽπŸ‘πŸ‘

    Please give more mashup πŸ‘ŒπŸ‘ŒπŸ‘Œ

    ReplyDelete
  19. Never got any backing track, will not come to the page next time

    ReplyDelete
  20. Bro baking track toh hai he nahi please baking track upload kro yaar

    ReplyDelete
  21. Sir please give the full backtrack sir

    ReplyDelete

Post a comment

Populer Posts

Despacito Guitar Tabs/Lead Lesson in Hindi | Luis Fonsi | Daddy Yankee | Justin Bieber

O O JANE JANA GUITAR TABS SINGLE STRING AND MULTISTRING

Tum Hi Aana Guitar Tabs with intro, Chords and Backing Track by Fuxino | Jubin Nautiyal | Marjaavaan | FxMusic