Skip to main content

Posts

Showing posts from April, 2020

Genda Phool (Boro Loker Beti Lo) Guitar Tabs & Chords (Main Bengali Line & Melody) by Fuxino | Fxmusic | Badshah ft Jacqueline Fernandez

Genda Phool (Boro Loker Beti Lo) Guitar Tabs & Chords with Cover (Main Bengali Line & Melody) by Fuxino
CHORDS

Only Two Chord Used - D#m & C#


Tabs
(Note - I have tried to write easy notes for you, for better understanding you must watch my video)

(Boro Loker Beti Lo)
E|--------------------------------
B|--4--6---6--6--4--6--4-----
G|-------------------------------6--
D|-------------------------------
A|-------------------------------
E|-------------------------------

E|-------------------------------
B|--4--6--6--6--4--6--4------
G|------------------------------6---
D|-------------------------------
A|------------------------------
E|-------------------------------


E|--------------------------------------------
B|-----------------4--4--6--7--6--4--4--4--4---
G|--3--3--6--6--------------------------------
D|--------------------------------------------
A|--------------------------------------------
E|--------------------------------------------


(Repeat)

E|-----------------------…