GUITAR MINI COURSE BOOK FOR ABSOLUTE BEGINNERS by FUXiNO | FX-MUSIC STORE

Image
GUITAR MINI COURSE FRO ABSOLUTE BEGINNERS
CLICK HERE

Guitar is very popular and most loved instrument of all time, everyone wants to learn guitar but only a few of them are able to do it, because people do not know how to solve the difficulties in the initial stage of learning, so they fed up and stop learning. But if you have a proper guidance you can easily learn the guitar. Many of you start learning guitar from YouTube videos but it takes a lot of time to find a good tutorials at one place. So, you should take this mini course and It will definitely give you all basics of guitar in one book which will save your time and you will feel confident.
About This Mini Guitar Book This book is made for those who has just started playing guitar, and I have shared all the basics in this one mini guitar course book with few tips for absolute beginners. It will save your time and you will feel confident after reading this book.
NOTE - I have covered only basic concepts in this book, it is not …

Genda Phool (Boro Loker Beti Lo) Guitar Tabs & Chords (Main Bengali Line & Melody) by Fuxino | Fxmusic | Badshah ft Jacqueline Fernandez

Genda Phool (Boro Loker Beti Lo) Guitar Tabs & Chords with Cover (Main Bengali Line & Melody) by Fuxino


CHORDS

Only Two Chord Used - D#m & C#


Tabs
(Note - I have tried to write easy notes for you, for better understanding you must watch my video)

(Boro Loker Beti Lo)
E|--------------------------------
B|--4--6---6--6--4--6--4-----
G|-------------------------------6--
D|-------------------------------
A|-------------------------------
E|-------------------------------

E|-------------------------------
B|--4--6--6--6--4--6--4------
G|------------------------------6---
D|-------------------------------
A|------------------------------
E|-------------------------------


E|--------------------------------------------
B|-----------------4--4--6--7--6--4--4--4--4---
G|--3--3--6--6--------------------------------
D|--------------------------------------------
A|--------------------------------------------
E|--------------------------------------------


(Repeat)

E|--------------------------------
B|--4--6---6--6--4--6--4------
G|-----------------------------6---
D|-------------------------------
A|-----------------------------
E|------------------------------


E|-------------------------------
B|--4--6--6--6--4--6--4--------
G|-----------------------------6--
D|-------------------------------
A|-------------------------------
E|--------------------------------


E|------------------------------------------------
B|------------------4--4--6--7--6--4--4--4--4---
G|--3--3--6--6----------------------------------
D|-----------------------------------------------
A|------------------------------------------------
E|------------------------------------------------



MELODY

E|----------------------------------
B|--4---4h6--6--6--4--6--4-----
G|---------------------------------6--
D|---------------------------------
A|--------------------------------
E|---------------------------------


E|---------------------------------
B|--4--6--6--6--4--4--6--4-----
G|--------------------------------6--
D|--------------------------------
A|--------------------------------
E|---------------------------------


E|-----------------------------------------------------------
B|---------------------4--4--6--7---6hp7--4----4--4--4--
G|--3--3--3--6--6----------------------------------------
D|---------------------------------------------------------
A|---------------------------------------------------------
E|----------------------------------------------------------


(Repeat)

E|----------------------------------
B|--4---4h6--6--6--4--6--4-----
G|--------------------------------6--
D|---------------------------------
A|----------------------------------
E|----------------------------------


E|----------------------------------
B|--4--6--6--6--4--4--6--4------
G|--------------------------------6--
D|---------------------------------
A|----------------------------------
E|----------------------------------


E|-----------------------------------------------------------
B|----------------------4--4--6--7---6hp7--4----4--4--4--
G|--3--3--3---6--6-----------------------------------------
D|-----------------------------------------------------------
A|-----------------------------------------------------------
E|-----------------------------------------------------------



INTRO/BASS LINE

(Note- Tune your 6th string at D# then follow these notes to play intro and bass line)

E|--------------------
B|--------------------
G|--------------------
D|--------------------
A|-----6--------4--4--
E|--0-----0--7--------

E|-----------
B|-----------
G|-----------
D|-----------
A|--4--------
E|------7--5--


E|--------------------
B|--------------------
G|--------------------
D|--------------------
A|-----6--------4--4--
E|--0-----0--7--------

E|-----------
B|-----------
G|-----------
D|-----------
A|--4--------
E|------7--5--


Leave your comments if you have any doubt.


Fuxino

Comments

  1. Please tell us how you make backing track

    ReplyDelete
  2. Can you please upload for Love me like you do .
    Pleaseeeee

    ReplyDelete
  3. Ye chords kii strumming kya hai or kese bajaana hai..plz bhai

    ReplyDelete
  4. Bhai gratitude ka ek video bna do with tutorial

    ReplyDelete
  5. Bhai Muqabla song pe ek chord video banao na plzz....

    ReplyDelete
  6. Bhai plz plz plz plz super khiladi 3 ka ringtone sikhao...plz plz plZ

    ReplyDelete
  7. Bhai plz plz plz plz super khiladi 3 ka ringtone sikhao...plz plz plZ

    ReplyDelete
  8. Bhai plz plz plz plz super khiladi 3 ka ringtone sikhao...plz plz plZ

    ReplyDelete
  9. This comment has been removed by a blog administrator.

    ReplyDelete
  10. ye song single string mya karo na plzzz

    ReplyDelete
  11. Sir plz make a tutorial of masters of puppet

    ReplyDelete
  12. How i tune my guitar string to d# plz help

    ReplyDelete
  13. Super,, pogiren song try,, plsss

    ReplyDelete
  14. How can we tune 6th string to D# is there any app for it?

    ReplyDelete

Post a comment

Populer Posts

Despacito Guitar Tabs/Lead Lesson in Hindi | Luis Fonsi | Daddy Yankee | Justin Bieber

O O JANE JANA GUITAR TABS SINGLE STRING AND MULTISTRING

Tum Hi Aana Guitar Tabs with intro, Chords and Backing Track by Fuxino | Jubin Nautiyal | Marjaavaan | FxMusic