Skip to main content

Posts

Showing posts from June, 2020

MAHABHARAT GUITAR TABS & CHORDS BY FUXINO | MAHABHRAT TITLE THEME SONG GUITAR LESSON | FXMUSIC

NOTE - THESE NOTES ARE ARRANGED FOR BEGINNERS WITHOUT ANY TECHNIQUES (e.g Hammer & Pull Off) , PLEASE WATCH ABOVE VIDEO FOR REFERENCE OR JUST ADD TECHNIQUES ACCORDING TO YOUR COMFORT.

CHORDS
Bm, G, F#, Em, B, D, A

TABS
E|------------------------- B|------------------------- G|--6--6--7--6--6--4-- D|----------------------- A|----------------------- E|------------------------

E|------------------------ B|------------------------ G|--7--7--9--7--7--6-- D|----------------------- A|----------------------- E|------------------------

E|---------------------------------------------- B|---------------------------------------------- G|--9--9--11-12-11-4--4--6--7--9--7--6--- D|--------------------------------------------- A|--------------------------------------------- E|---------------------------------------------

E|---------------------------- B|---------------------------- G|--9--9--11-9--11-9--8-- D|-------------------------- A|--------------------------- E|---------------------------

E|--------------------------- …

Astronomia (Coffin Dance) Guitar Tabs For Beginners by Fuxino | Fxmusic

(WATCH THIS VIDEO FOR COMPLETE UNDERSTANDING)



Note - I have changed positions of few notes to make it more simple with good sound.


TABS

E|-----------------------------------------------------------------------------
B|--------3--------------------------------------------------------------------
G|-----------5--3--2--2--3--5--3--2-----------3--2--3--2--3--------3--2--3--2--3--
D|--5--5------------------------------------5--5---------------------5--5-----------------
A|-----------------------------------------------------------------------------
E|-----------------------------------------------------------------------------


E|-----------------------------------------------------------------------------
B|--------3--------------------------------------------------------------------
G|-----------5--3--2--2--3--5--3--2-----------3--2--3--2--3--------3--2--3--2--3--
D|--5--5------------------------------------5--5---------------------5--5-----------------
A|-----------------------------------…