Astronomia (Coffin Dance) Guitar Tabs For Beginners by Fuxino | Fxmusic



(WATCH THIS VIDEO FOR COMPLETE UNDERSTANDING)




Note - I have changed positions of few notes to make it more simple with good sound.


TABS

E|-----------------------------------------------------------------------------
B|--------3--------------------------------------------------------------------
G|-----------5--3--2--2--3--5--3--2-----------3--2--3--2--3--------3--2--3--2--3--
D|--5--5------------------------------------5--5---------------------5--5-----------------
A|-----------------------------------------------------------------------------
E|-----------------------------------------------------------------------------


E|-----------------------------------------------------------------------------
B|--------3--------------------------------------------------------------------
G|-----------5--3--2--2--3--5--3--2-----------3--2--3--2--3--------3--2--3--2--3--
D|--5--5------------------------------------5--5---------------------5--5-----------------
A|-----------------------------------------------------------------------------
E|-----------------------------------------------------------------------------

E|-------------------------------------------------------------3--3--3--3--3--3--3--3--
B|-----------------3--3--3--3-----------------6--6--6--6--------------------------
G|--3--3--3--3--------------------5--5--5--5--------------------------------------
D|--------------------------------------------------------------------------
A|--------------------------------------------------------------------------
E|--------------------------------------------------------------------------

E|--------------
B|--3-----------
G|-----5--3-----
D|-----------3--
A|--------------
E|--------------



E|-----------------------------------------------------------------------------
B|--------3--------------------------------------------------------------------
G|-----------5--3--2--2--3--5--3--2-----------3--2--3--2--3--------3--2--3--2--3--
D|--5--5---------------------------------5--5---------------------5--5-----------------
A|-----------------------------------------------------------------------------
E|-----------------------------------------------------------------------------


E|-----------------------------------------------------------------------------
B|--------3--------------------------------------------------------------------
G|-----------5--3--2--2--3--5--3--2-----------3--2--3--2--3--------3--2--3--2--3--
D|--5--5-------------------------------------5--5---------------------5--5-----------------
A|-----------------------------------------------------------------------------
E|-----------------------------------------------------------------------------



E|-------------------------------------------------------------3--3--3--3--3--3--3--3--
B|-----------------3--3--3--3-----------------6--6--6--6--------------------------
G|--3--3--3--3--------------------5--5--5--5--------------------------------------
D|--------------------------------------------------------------------------
A|--------------------------------------------------------------------------
E|--------------------------------------------------------------------------

E|--------------
B|--3-----------
G|-----5--3-----
D|-----------3--
A|--------------
E|--------------



HIGH OCTAVE


E|----------10-------------------------------------------------------------------------------------------
B|--------------13-11-10-10-11-13-11-10-----------11-10-11-10-11-----------11-10-11-10-11-
G|--12-12-----------------------------------------12-12----------------------12-12----------------
D|-----------------------------------------------------------------------------------------------------
A|------------------------------------------------------------------------------------------------------
E|---------------------------------------------------------------------------------------------------------


E|----------10-------------------------------------------------------------------------------------------
B|--------------13-11-10-10-11-13-11-10-----------11-10-11-10-11-----------11-10-11-10-11-
G|--12-12----------------------------------------12-12----------------------12-12----------------
D|-----------------------------------------------------------------------------------------------------
A|------------------------------------------------------------------------------------------------------
E|---------------------------------------------------------------------------------------------------------


E|-------------------10-10-10-10--------------------13-13-13-13-15-15-15-15-15-15-15-15-
B|--11-11-11-11------------------------13-13-13-13-------------------------------------------------
G|-----------------------------------------------------------------------------------------------------
D|-----------------------------------------------------------------------------------------------------
A|-----------------------------------------------------------------------------------------------------
E|------------------------------------------------------------------------------------------------------

E|--10----------
B|-----13-11----
G|-----------10-
D|--------------
A|--------------
E|--------------



E|----------10-------------------------------------------------------------------------------------------
B|--------------13-11-10-10-11-13-11-10-----------11-10-11-10-11-----------11-10-11-10-11-
G|--12-12-----------------------------------------12-12----------------------12-12----------------
D|-----------------------------------------------------------------------------------------------------
A|------------------------------------------------------------------------------------------------------
E|---------------------------------------------------------------------------------------------------------


E|----------10-------------------------------------------------------------------------------------------
B|--------------13-11-10-10-11-13-11-10-----------11-10-11-10-11-----------11-10-11-10-11-
G|--12-12------------------------------------------12-12----------------------12-12----------------
D|-----------------------------------------------------------------------------------------------------
A|------------------------------------------------------------------------------------------------------
E|---------------------------------------------------------------------------------------------------------


E|-------------------10-10-10-10--------------------13-13-13-13-15-15-15-15-15-15-15-15-
B|--11-11-11-11-------------------------13-13-13-13-------------------------------------------------
G|-----------------------------------------------------------------------------------------------------
D|-----------------------------------------------------------------------------------------------------
A|-----------------------------------------------------------------------------------------------------
E|------------------------------------------------------------------------------------------------------

E|--10----------
B|-----13-11----
G|-----------10-
D|--------------
A|--------------
E|--------------

Comments

  1. So many adds can't see the notes 😡😡

    ReplyDelete
    Replies
    1. ADS ARE PLACED AUTOMATICALLY.... AND DONT SHOW YOUR ANGER IF SOMEONE IS PROVIDING YOU ANYTHING FREE OF COST... IN MY PAST YEARS I USED TO MAKE PROPER PDF FOR YOU GUYS AND THAT TIME ALSO I GOT SO MANY ABUSES FOR STUPID REASONS.... Wo kahavat hai naa ''' Free Ke Male Ki Value Nahi Hoti'''' ..... SO I WILL POST SAME AS I AM DOING NOW...AND JINKO SIKHNA HAI WO ARAAM SE SIKH RAHE HAI MEHNAT KARKE NAKI ANGER SHOW KRKE.

      Delete
    2. U r doin a great service for all of those who wants to learn and improve sir... so dont worry if sm post hate comments... we r there to stand with you

      Delete
    3. yes sir these so called guiatrist or learner are just here to turn your mood into bad one, this song played very good on your guitar

      Delete
    4. Yes you are great sir
      Dont worry we are with you

      Delete
  2. Replies
    1. CAN YOU TELL ME WHAT IS INAPPROPRIATE... IF ANYTHING WRONG I WILL CORRECT THAT.

      Delete
    2. sir it is not appropiate and for me as a little experienced guitar its very useful thank you sir i think the stupid people are always there for telling your mistakes whether there is or not

      Delete
  3. Sir Apne kistarase apka logo banaya Hain

    ReplyDelete
  4. Plz make a video of lesson of this songs plz plz sir

    ReplyDelete
  5. sir can you plz upload backing track of this u can charge for it i will pay it

    ReplyDelete
  6. Sorry bro l am not able to understand the tabs can you provide it like the sheet music's

    ReplyDelete
  7. Great work bro...big fan love uhh❤️

    ReplyDelete
  8. Tum bhut mast kaam karta h bawa ignore all this who shows their anger 🤙🤙👍👍👍

    ReplyDelete
  9. sir i dont know how you do that
    but my guitar does not sound like that

    ReplyDelete
  10. Thanks sir for this lesson 😊🤠

    ReplyDelete

Post a comment

Popular posts from this blog

Single String Guitar Songs Mashup - 10 Arijit Singh Songs | Easy One String Bollywood Hindi Songs Guitar Tabs

Tum Hi Aana Guitar Tabs with intro, Chords and Backing Track by Fuxino | Jubin Nautiyal | Marjaavaan | FxMusic

Tujhe Kitna Chahne Lage Hum Guitar Tabs Lesson w/ Cover & Chords | KABIR SINGH | FUXiNO