MAHABHARAT GUITAR TABS & CHORDS BY FUXINO | MAHABHRAT TITLE THEME SONG GUITAR LESSON | FXMUSIC


NOTE - THESE NOTES ARE ARRANGED FOR BEGINNERS WITHOUT ANY TECHNIQUES (e.g Hammer & Pull Off) , PLEASE WATCH ABOVE VIDEO FOR REFERENCE OR JUST ADD TECHNIQUES ACCORDING TO YOUR COMFORT.


CHORDS

Bm, G, F#, Em, B, D, A


TABS

E|-------------------------
B|-------------------------
G|--6--6--7--6--6--4--
D|-----------------------
A|-----------------------
E|------------------------


E|------------------------
B|------------------------
G|--7--7--9--7--7--6--
D|-----------------------
A|-----------------------
E|------------------------


E|----------------------------------------------
B|----------------------------------------------
G|--9--9--11-12-11-4--4--6--7--9--7--6---
D|---------------------------------------------
A|---------------------------------------------
E|---------------------------------------------


E|----------------------------
B|----------------------------
G|--9--9--11-9--11-9--8--
D|--------------------------
A|---------------------------
E|---------------------------


E|---------------------------
B|---------------------------
G|--9--9--11-9--11-9--7--
D|---------------------------
A|---------------------------
E|---------------------------


E|------------------------------------------
B|-----------------------------------------
G|--7--7--7--9--7--4--6--4--6--4--4--
D|----------------------------------------
A|----------------------------------------
E|----------------------------------------


ON 2ND STRING

E|------------------------
B|--2--2--3--2--2--0--
G|-----------------------
D|-----------------------
A|-----------------------
E|-----------------------


E|------------------------
B|--3--3--5--3--3--2--
G|-----------------------
D|-----------------------
A|-----------------------
E|-----------------------


E|---------------------
B|--5--5--7--8--7--
G|--------------------
D|--------------------
A|--------------------
E|--------------------


E|-----------------------------
B|--0--0--2--3---3\5--3--2--
G|--------------------------
D|--------------------------
A|--------------------------
E|--------------------------


E|---------------------------
B|--5--5--7--5--7--5--4--
G|---------------------------
D|---------------------------
A|---------------------------
E|---------------------------


E|---------------------------
B|--5--5--7--5--7--5--3--
G|--------------------------
D|--------------------------
A|--------------------------
E|---------------------------


E|------------------------------------------
B|--3--3--3--5--3--0--2--0--2--0--0---
G|-----------------------------------------
D|-----------------------------------------
A|-----------------------------------------
E|-----------------------------------------

REPEAT BUT LAST LINE HAS FEW DIFFERENCES

E|-----------------------
B|--2--2--3--2--2--0--
G|----------------------
D|----------------------
A|----------------------
E|----------------------


E|-----------------------
B|--3--3--5--3--3--2--
G|---------------------
D|---------------------
A|---------------------
E|---------------------


E|--------------------
B|--5--5--7--8--7--
G|-------------------
D|------------------
A|-------------------
E|-------------------


E|--------------------------
B|--0--0--2--3---3\5--3--2--
G|--------------------------
D|--------------------------
A|--------------------------
E|--------------------------


E|--------------------------------
B|--3--3--5--3--0--2--0--2--0--0--
G|--------------------------------
D|--------------------------------
A|--------------------------------
E|--------------------------------


ON 1st STRING

E|--9--9--10--9--9--7--
B|--------------------
G|--------------------
D|--------------------
A|--------------------
E|--------------------


E|--10-10-12-10-10-9--
B|--------------------
G|--------------------
D|--------------------
A|--------------------
E|--------------------


E|--12-12-14-15-14-7--7--9--10-12-10-9--
B|--------------------------------------
G|--------------------------------------
D|--------------------------------------
A|--------------------------------------
E|--------------------------------------


E|--12-12-14-12-14-12-11-
B|-----------------------
G|-----------------------
D|-----------------------
A|-----------------------
E|-----------------------


E|--12-12-15-14-12-14-12-10----
B|-----------------------------
G|-----------------------------
D|-----------------------------
A|-----------------------------
E|-----------------------------


E|--10-10-10-12-10---7--9-10-9----7--9-10-9---7--7--
B|-----------------------------------------------------------
G|-----------------------------------------------------------
D|------------------------------------------------------------
A|------------------------------------------------------------
E|------------------------------------------------------------



IF YOU HAVE ANY DOUBTS, PLEASE LEAVE YOUR COMMENT BELOW.

Comments

  1. I have a request can you please explain me how can my guitar properly sound like your guitar sounds ...what instruments shoul I use for my guitar and how much money should need for it

    ReplyDelete
    Replies
    1. i also want this..editing...

      Delete
    2. no money required just tune your guitar with an app chromatic guitar tuner , you will get it at play store

      Delete
  2. Thanku so much sir for notes

    ReplyDelete
  3. Sir please give background beats

    ReplyDelete
  4. sir please tell how to create backing tracks

    ReplyDelete
  5. Bhai yalgaar ka tabs and Leeson

    ReplyDelete
  6. I'm facing problem by playing pull off notes is there any alternative or can you plz teach?

    ReplyDelete
  7. Where is the background music??

    ReplyDelete
  8. Please add the next main line "Mahabharat"... Please...

    ReplyDelete
  9. i have a guitar which only has 12 chords not 14 oor 15

    ReplyDelete
  10. sir can i get backing track?

    ReplyDelete
  11. Hi, can you please give the notes for the last line of the song for 2nd string?

    ReplyDelete
  12. bro its too good.. ,love you man.. i am trying now...

    ReplyDelete
  13. It is very nice ☺️๐Ÿ˜Š. thanks for the noted๐Ÿ˜€

    ReplyDelete

Post a comment

Popular posts from this blog

Single String Guitar Songs Mashup - 10 Arijit Singh Songs | Easy One String Bollywood Hindi Songs Guitar Tabs

Tum Hi Aana Guitar Tabs with intro, Chords and Backing Track by Fuxino | Jubin Nautiyal | Marjaavaan | FxMusic

Tujhe Kitna Chahne Lage Hum Guitar Tabs Lesson w/ Cover & Chords | KABIR SINGH | FUXiNO