Genda Phool (Boro Loker Beti Lo) Ukulele Tabs Tutorial in Hindi | Main Bengali Line | Fuxino | Fx-Music

Genda Phool (Boro Loker Beti Lo) Ukulele Tabs with Video Tutorial




Tabs

A|--5--5h7--7--7--5--7--5--3--
E|-----------------------------
C|-----------------------------
G|-----------------------------


A|--5--7--7--7--5--5--7--5--3--
E|-----------------------------
C|-----------------------------
G|-----------------------------


A|--0--0--0--3--3--5--5--7--8---7h/p8--5---5--5--5----
E|-----------------------------------------------------
C|-----------------------------------------------------
G|-----------------------------------------------------


Easy Version

A|--5-7---7--7----5--7--5--3--
E|-----------------------------
C|-----------------------------
G|-----------------------------


A|--5---7-7-7---5--5--7--5--3--
E|-----------------------------
C|-----------------------------
G|-----------------------------


A|--0--0--0--3--3--5--5--7--8---7---5----5--5--5----
E|-----------------------------------------------------
C|-----------------------------------------------------
G|-----------------------------------------------------


GET UKULELE CHORD BOOK



if you have any doubt please leave your comment below.

Comments

  1. sir can you please make a lesson on Sia Cheap Thrills

    ReplyDelete
  2. Sir , you should also give backing track please

    ReplyDelete
  3. Please explain background music also

    ReplyDelete

Post a comment

Popular posts from this blog

Single String Guitar Songs Mashup - 10 Arijit Singh Songs | Easy One String Bollywood Hindi Songs Guitar Tabs

Tum Hi Aana Guitar Tabs with intro, Chords and Backing Track by Fuxino | Jubin Nautiyal | Marjaavaan | FxMusic

Tujhe Kitna Chahne Lage Hum Guitar Tabs Lesson w/ Cover & Chords | KABIR SINGH | FUXiNO