BELLA CIAO (MONEY HEIST) THEME MUSIC TABS by Fuxino | Written Notes | Fx-Music

BELLA CiAO TABS



NOTE - In my video, I have repeated these lines 3 times and every time I have added and removed few notes to make it more interesting, so here is the easy tabs, so that everyone can learn.


TABS

E|-----------------

B|-----------------

G|--0--5--7--8--5--

D|-----------------

A|-----------------

E|-----------------


E|-----------------

B|-----------------

G|--0--5--7--8--5--

D|-----------------

A|-----------------

E|-----------------



E|-----------------------------

B|-----------------------------

G|--0--5--7--8--7--5--8--7--5--

D|-----------------------------

A|-----------------------------

E|-----------------------------



E|-----------

B|--8--8--8--

G|-----------

D|-----------

A|-----------

E|-----------



E|-----------------8-----------------

B|--8--6--8--9---------------------

G|--------------------------------

D|--------------------------------

A|--------------------------------

E|--------------------------------



E|----------------------------------

B|-9--8--6--9--8---------------

G|--------------------------------

D|--------------------------------

A|--------------------------------

E|--------------------------------



E|-----------------------

B|--6--------8-----------

G|-----8--7-----7--8--5--

D|-----------------------

A|-----------------------

E|-----------------------


if you have any doubt please leave your comment below.

#Fuxino


Comments

  1. We have to repeat each lines three times.

    ReplyDelete
  2. Please make a video if the tabs lesson

    ReplyDelete
  3. i'm unable to underrstand how to play last part

    ReplyDelete
    Replies
    1. First play 2 string then 1 string the 2 and the1

      Delete
  4. Replies
    1. This comment has been removed by a blog administrator.

      Delete
  5. Hey! I am not able to pla 3 part

    ReplyDelete
  6. Please make a video that how can we under stand each part please

    ReplyDelete
  7. I ❤️ Free fire 🔥

    So , I ❤️Bella caio

    ReplyDelete
  8. This comment has been removed by a blog administrator.

    ReplyDelete
  9. Please it's a humble request to make one more video wherein u can explain indetails on how to play it. Thanks in advance
    Stay safe

    ReplyDelete
    Replies
    1. Explain the tabs.i can't do it.upload a video and play Bella ciao.please

      Delete
  10. Which chords we can play in background?

    ReplyDelete

Post a comment

Popular posts from this blog

Single String Guitar Songs Mashup - 10 Arijit Singh Songs | Easy One String Bollywood Hindi Songs Guitar Tabs

Tum Hi Aana Guitar Tabs with intro, Chords and Backing Track by Fuxino | Jubin Nautiyal | Marjaavaan | FxMusic

Tujhe Kitna Chahne Lage Hum Guitar Tabs Lesson w/ Cover & Chords | KABIR SINGH | FUXiNO