TANHAJI THEME MUSIC (RA RA RA RA) NOTES/TABS | ELECTRIC GUITAR AND PIANO Notes by Fuxino

TANHAJI THEME MUSIC (RA RA RA RA) NOTES FOR ACOUSTIC GUITAR, ELECTRIC GUITAR AND PIANO by Fuxino





CHORDS

F#m,G,F

ELECTRIC GUITAR (Power Chord Progression)

F# F# > G G > F# F# > F F


RA RA RA RA

E|--------------

B|--7--7--7--7--

G|--------------

D|--------------

A|--------------

E|--------------


RA RA RA RA

E|--------------

B|--8--8--8--8--

G|--------------

D|--------------

A|--------------

E|--------------


RA RA RA RA

E|--------------

B|--7--7--7--7--

G|--------------

D|--------------

A|--------------

E|--------------

RA RA 

E|--------

B|--8--6--

G|--------

D|--------

A|--------

E|--------


RA RA RA RA

E|--------------

B|--7--7--7--7--

G|--------------

D|--------------

A|--------------

E|--------------


RA RA RA RA

E|--------------

B|--8--8--8--8--

G|--------------

D|--------------

A|--------------

E|--------------


RA RA RA RA

E|--------------

B|--7--7--7--7--

G|--------------

D|--------------

A|--------------

E|--------------

RA RA 

E|--------

B|--8--6--

G|--------

D|--------

A|--------

E|--------



BD LEAD

E|--------------

B|--7--7--7--7--

G|--------------

D|--------------

A|--------------

E|--------------


E|--------------

B|--8--8--8--8--

G|--------------

D|--------------

A|--------------

E|--------------


E|--------------

B|--7--7--7--7--

G|--------------

D|--------------

A|--------------

E|--------------


E|--------------

B|--6--6--6--6--

G|--------------

D|--------------

A|--------------

E|--------------


ELECTRIC GUITAR LEAD

E|--------------

B|--7--8--7--6--

G|--------------

D|--------------

A|--------------

E|--------------

E|--------------

B|--7--8--7--6--

G|--------------

D|--------------

A|--------------

E|--------------

E|--------------

B|--7--8--7--6--

G|--------------

D|--------------

A|--------------

E|--------------

E|--------------

B|--7--8--7--6--

G|--------------

D|--------------

A|--------------

E|--------------


Learn and repeat above parts where required.

#Fuxino

Comments

  1. Really nice I played on acoustic guitar but it's gonna sound like fire on electric guitar. Although, really cool bro🤘🔥🔥

    ReplyDelete

Post a comment

Popular posts from this blog

Single String Guitar Songs Mashup - 10 Arijit Singh Songs | Easy One String Bollywood Hindi Songs Guitar Tabs

Tum Hi Aana Guitar Tabs with intro, Chords and Backing Track by Fuxino | Jubin Nautiyal | Marjaavaan | FxMusic

Tujhe Kitna Chahne Lage Hum Guitar Tabs Lesson w/ Cover & Chords | KABIR SINGH | FUXiNO