Skip to main content

TANHAJI THEME MUSIC (RA RA RA RA) NOTES/TABS | ELECTRIC GUITAR AND PIANO Notes by Fuxino

TANHAJI THEME MUSIC (RA RA RA RA) NOTES FOR ACOUSTIC GUITAR, ELECTRIC GUITAR AND PIANO by Fuxino





CHORDS

F#m,G,F

ELECTRIC GUITAR (Power Chord Progression)

F# F# > G G > F# F# > F F


RA RA RA RA

E|--------------

B|--7--7--7--7--

G|--------------

D|--------------

A|--------------

E|--------------


RA RA RA RA

E|--------------

B|--8--8--8--8--

G|--------------

D|--------------

A|--------------

E|--------------


RA RA RA RA

E|--------------

B|--7--7--7--7--

G|--------------

D|--------------

A|--------------

E|--------------

RA RA 

E|--------

B|--8--6--

G|--------

D|--------

A|--------

E|--------


RA RA RA RA

E|--------------

B|--7--7--7--7--

G|--------------

D|--------------

A|--------------

E|--------------


RA RA RA RA

E|--------------

B|--8--8--8--8--

G|--------------

D|--------------

A|--------------

E|--------------


RA RA RA RA

E|--------------

B|--7--7--7--7--

G|--------------

D|--------------

A|--------------

E|--------------

RA RA 

E|--------

B|--8--6--

G|--------

D|--------

A|--------

E|--------



BD LEAD

E|--------------

B|--7--7--7--7--

G|--------------

D|--------------

A|--------------

E|--------------


E|--------------

B|--8--8--8--8--

G|--------------

D|--------------

A|--------------

E|--------------


E|--------------

B|--7--7--7--7--

G|--------------

D|--------------

A|--------------

E|--------------


E|--------------

B|--6--6--6--6--

G|--------------

D|--------------

A|--------------

E|--------------


ELECTRIC GUITAR LEAD

E|--------------

B|--7--8--7--6--

G|--------------

D|--------------

A|--------------

E|--------------

E|--------------

B|--7--8--7--6--

G|--------------

D|--------------

A|--------------

E|--------------

E|--------------

B|--7--8--7--6--

G|--------------

D|--------------

A|--------------

E|--------------

E|--------------

B|--7--8--7--6--

G|--------------

D|--------------

A|--------------

E|--------------


Learn and repeat above parts where required.

#Fuxino

Comments

  1. Really nice I played on acoustic guitar but it's gonna sound like fire on electric guitar. Although, really cool bro🤘🔥🔥

    ReplyDelete

Post a comment

Popular posts from this blog

Tum Hi Aana Guitar Tabs with intro, Chords and Backing Track by Fuxino | Jubin Nautiyal | Marjaavaan | FxMusic

Tum Hi Aana Guitar Tabs Lesson with Cover

Tum Hi Aana BACKING TRACK (for practice)

Watch my video for better understanding.


Chords - Em,C,D,Am,Bm

INTRO

E|-----7--7--5--------------
B|--5-----------8--7--8--5--
G|--------------------------
D|--------------------------
A|--------------------------
E|--------------------------

E|-----7--7--5--------------
B|--5-----------8--7--8--5--
G|--------------------------
D|--------------------------
A|--------------------------
E|--------------------------

E|-5----5--5-----------------
B|-------------8--7--5--7-----
G|---7-----------------------7--
D|--------------------------
A|--------------------------
E|--------------------------


E|--------------------
B|-------------7--8--5--
G|--7--5--7-----------
D|--------------------
A|--------------------
E|--------------------


TERE JAANE KA GUM

E|--12-10----10-------
B|----------13----13-12-
G|--------------------
D|--------------------
A|--------------------
E|--------------------


E|--12-10----10-------

Single String Guitar Songs Mashup - 10 Arijit Singh Songs | Easy One String Bollywood Hindi Songs Guitar Tabs

Single String Guitar Songs Mashup - 10 Arijit Singh Songs | Easy One String Bollywood Hindi Songs Tabs

MASHUP COVER


PiANO COVER


LESSON VIDEO



BACKING TRACK 
(Available on Google Play, i-Tunes or Spotify)
(Click This icon)



TABS
KABHI JO BADAL single string guitar tabs
E|--5--7--8--7--8--10-7-- B|----------------------- G|----------------------- D|----------------------- A|----------------------- E|-----------------------
E|--5--7--8--7--8--10-7-- B|----------------------- G|----------------------- D|----------------------- A|----------------------- E|-----------------------

E|--5--7--8--7--8--10-7-- B|----------------------- G|----------------------- D|----------------------- A|----------------------- E|-----------------------

E|--3--5--7--5--3--1--0-- B|----------------------- G|----------------------- D|----------------------- A|----------------------- E|-----------------------

PHIR MOHABBAT single string guitar tabs
E|--0--5--5--5--3--3--5--5--7--7--7--8--8--8\10-10-7--7/5-- B|----------------…

Tujhe Kitna Chahne Lage Hum Guitar Tabs Lesson w/ Cover & Chords | KABIR SINGH | FUXiNO

CHORD USED - B,G#m,E,F#,C#m,Dm

TABS

SYMBOLS (/) Slide Down (\) Slide Up   (h) Hammer On   (p) Pull Off   (x) Muted

E|-----------------------------------
B|--2\5--4-----------------------------
G|------------6--4--6\8-----------
D|-----------------------------------
A|-----------------------------------
E|-----------------------------------


E|-----------------------------------
B|----------------------------------
G|---3--4--6--4--4---------------
D|-----------------------------------
A|-----------------------------------
E|-----------------------------------


E|--------------------------------
B|--\7--7--7--7/-------------------
G|-----------------\4--------------------
D|--------------------------------
A|--------------------------------
E|--------------------------------

E|--------------------------------
B|--------4hp5--------
G|-4--6---------6--6--
D|--------------------------------
A|--------------------------------
E|--------------------------------

IT TAKES A-LOT OF EFFORT TO MAKE…