Skip to main content

KGF MOTHER TUNE - Emotional & Sentimental (Main Melody) | Tabs by Fuxino | Fx-Music

KGF  TUNE


E|-----------------------------------------------

B|--4--6--4-------------------------------------

G|-------------6---5--3--3--3--3--3--1--1--3--6--5--

D|-----------------------------------------------

A|-----------------------------------------------

E|-----------------------------------------------



E|--------------------------------------------------

B|--\4--4--6--4--------------------------------------

G|-----------------6--5--3--3--3--3--3--1--1--3--5--3--

D|--------------------------------------------------

A|--------------------------------------------------

E|--------------------------------------------------


E|-----------------------------------------------

B|--4--6--4-------------------------------------

G|-------------6---5--3--3--3--3--3--1--1--3--6--5--

D|-----------------------------------------------

A|-----------------------------------------------

E|-----------------------------------------------



E|--------------------------------------------------

B|--\4--4--6--4--------------------------------------

G|-----------------6--5--3--3--3--3--3--1--1--3--5--3--

D|--------------------------------------------------

A|--------------------------------------------------

E|--------------------------------------------------



E|-----------------------------------------------

B|--4--6--4-------------------------------------

G|-------------6---5--3--3--3--3--3--1--1--3--6--5--

D|-----------------------------------------------

A|-----------------------------------------------

E|-----------------------------------------------



E|--------------------------------------------------

B|--\4--4--6--4--------------------------------------

G|-----------------6--5--3--3--3--3--3--1--1--3--5--3--

D|--------------------------------------------------

A|--------------------------------------------------

E|--------------------------------------------------



E|-----------------------------------------------

B|--4--6--4-------------------------------------

G|-------------6---5--3--3--3--3--3--1--1--3--6--5--

D|-----------------------------------------------

A|-----------------------------------------------

E|-----------------------------------------------



E|--------------------------------------------------

B|--\4--4--6--4--------------------------------------

G|-----------------6--5--3--3--3--3--3--1--1--3--5--3--

D|--------------------------------------------------

A|--------------------------------------------------

E|--------------------------------------------------



Leave your comment below if you have any doubt.

#Fuxino

Comments

  1. Bro ungliyan nhi chilti kya aapki

    ReplyDelete
    Replies
    1. Sorry bro this wasn't me
      Plz plz plz plz plz plz.plz forgive meπŸ™πŸ™πŸ»πŸ™πŸ»πŸ™πŸ»πŸ™πŸ»πŸ™πŸ»πŸ™πŸ»πŸ™πŸ»πŸ™πŸ»πŸ™πŸ»πŸ™πŸ»πŸ™πŸ»πŸ™πŸ»πŸ™πŸ»πŸ™πŸ»πŸ™πŸ»πŸ™πŸ»πŸ™πŸ»πŸ™πŸ»πŸ™πŸ»πŸ™πŸ»πŸ™πŸ»πŸ™πŸ»πŸ™πŸ»πŸ™πŸ»πŸ™πŸ»πŸ™πŸ»πŸ™πŸ»m ur big fan
      Learnt Guitar from u only

      Delete
  2. Bhai make a full video please
    Please
    Please

    ReplyDelete

Post a comment

Popular posts from this blog

Tum Hi Aana Guitar Tabs with intro, Chords and Backing Track by Fuxino | Jubin Nautiyal | Marjaavaan | FxMusic

Tum Hi Aana Guitar Tabs Lesson with Cover

Tum Hi Aana BACKING TRACK (for practice)

Watch my video for better understanding.


Chords - Em,C,D,Am,Bm

INTRO

E|-----7--7--5--------------
B|--5-----------8--7--8--5--
G|--------------------------
D|--------------------------
A|--------------------------
E|--------------------------

E|-----7--7--5--------------
B|--5-----------8--7--8--5--
G|--------------------------
D|--------------------------
A|--------------------------
E|--------------------------

E|-5----5--5-----------------
B|-------------8--7--5--7-----
G|---7-----------------------7--
D|--------------------------
A|--------------------------
E|--------------------------


E|--------------------
B|-------------7--8--5--
G|--7--5--7-----------
D|--------------------
A|--------------------
E|--------------------


TERE JAANE KA GUM

E|--12-10----10-------
B|----------13----13-12-
G|--------------------
D|--------------------
A|--------------------
E|--------------------


E|--12-10----10-------

Single String Guitar Songs Mashup - 10 Arijit Singh Songs | Easy One String Bollywood Hindi Songs Guitar Tabs

Single String Guitar Songs Mashup - 10 Arijit Singh Songs | Easy One String Bollywood Hindi Songs Tabs

MASHUP COVER


PiANO COVER


LESSON VIDEO



BACKING TRACK 
(Available on Google Play, i-Tunes or Spotify)
(Click This icon)



TABS
KABHI JO BADAL single string guitar tabs
E|--5--7--8--7--8--10-7-- B|----------------------- G|----------------------- D|----------------------- A|----------------------- E|-----------------------
E|--5--7--8--7--8--10-7-- B|----------------------- G|----------------------- D|----------------------- A|----------------------- E|-----------------------

E|--5--7--8--7--8--10-7-- B|----------------------- G|----------------------- D|----------------------- A|----------------------- E|-----------------------

E|--3--5--7--5--3--1--0-- B|----------------------- G|----------------------- D|----------------------- A|----------------------- E|-----------------------

PHIR MOHABBAT single string guitar tabs
E|--0--5--5--5--3--3--5--5--7--7--7--8--8--8\10-10-7--7/5-- B|----------------…

Tujhe Kitna Chahne Lage Hum Guitar Tabs Lesson w/ Cover & Chords | KABIR SINGH | FUXiNO

CHORD USED - B,G#m,E,F#,C#m,Dm

TABS

SYMBOLS (/) Slide Down (\) Slide Up   (h) Hammer On   (p) Pull Off   (x) Muted

E|-----------------------------------
B|--2\5--4-----------------------------
G|------------6--4--6\8-----------
D|-----------------------------------
A|-----------------------------------
E|-----------------------------------


E|-----------------------------------
B|----------------------------------
G|---3--4--6--4--4---------------
D|-----------------------------------
A|-----------------------------------
E|-----------------------------------


E|--------------------------------
B|--\7--7--7--7/-------------------
G|-----------------\4--------------------
D|--------------------------------
A|--------------------------------
E|--------------------------------

E|--------------------------------
B|--------4hp5--------
G|-4--6---------6--6--
D|--------------------------------
A|--------------------------------
E|--------------------------------

IT TAKES A-LOT OF EFFORT TO MAKE…