PLAY DATE - Guitar/Ukulele Tabs by Fx-Music | Single String | One String | Guitar Tabs


PLAY DATE TABS by FX-MUSIC

(For better understanding, Watch Tutorial Video on YouTube by FX-MUSIC)


I don't give a fuck about you anyways

E|--5--8-8---5-5--5-3--5--7--5--3--0--

B|--------------------------------------

G|--------------------------------------

D|--------------------------------------

A|--------------------------------------

E|--------------------------------------


Whoever said I gave a shit 'bout you?

E|---5--5-8--8--5-5--3--5--7--

B|--------------------------------------

G|--------------------------------------

D|--------------------------------------

A|--------------------------------------

E|--------------------------------------


You never share your toys or communicate

E|--8--8--8--8--5-5--3--5--7--5--3--0-----

B|-----------------------------------------

G|-----------------------------------------

D|-----------------------------------------

A|-----------------------------------------

E|-----------------------------------------


I guess I'm just a play date to you

E|--5--5-8--7-5--5-5\7--3--3--

B|--------------------------

G|--------------------------

D|--------------------------

A|--------------------------

E|--------------------------


Main Melody (Ahh...Haaa..Ahh...haa...)

E|--3--2--7--7--5--3--0-----------------

B|-----------------------------------------

G|-----------------------------------------

D|-----------------------------------------

A|-----------------------------------------

E|-----------------------------------------


E|----3--2--3--2--3--3----------------

B|-----------------------------------------

G|-----------------------------------------

D|-----------------------------------------

A|-----------------------------------------

E|-----------------------------------------


E|--3--2--5\7--5\7--5--3--0-----------------

B|-----------------------------------------

G|-----------------------------------------

D|-----------------------------------------

A|-----------------------------------------

E|-----------------------------------------


E|----3--2--3--2--3--2\3----------------

B|-----------------------------------------

G|-----------------------------------------

D|-----------------------------------------

A|-----------------------------------------

E|-----------------------------------------







Note - You can use same notes on Ukulele with same gaps. watch my video on (Fx-Music) youtube channel For Better Understanding.



Comments

  1. Bruh you are really awesome!! 😘

    ReplyDelete
  2. This isn't the same notes which U played on guitar.... Can U please put the ones which U played in that video tooπŸ™πŸ»πŸ™πŸ»πŸ™πŸ»

    ReplyDelete
    Replies
    1. Do you want the tabs that @FUXiNO played in the video I have made a video on it and tabs are in the description of that video

      Delete
    2. This comment has been removed by a blog administrator.

      Delete
  3. Bro can u please share the same notes that u played in ur video .plz

    ReplyDelete
  4. Please can you share the ukulele chords

    ReplyDelete

Post a Comment

Popular posts from this blog

Single String Guitar Songs Mashup - 10 Arijit Singh Songs | Easy One String Bollywood Hindi Songs Guitar Tabs

Tum Hi Aana Guitar Tabs with intro, Chords and Backing Track by Fuxino | Jubin Nautiyal | Marjaavaan | FxMusic

O Pata Nahi Ji Kaunsa Nasha Karta hai Guitar Tabs & Chords - Titliyan | Hardy Sandhu | Yaar Mera Titliyan Warga | Fx-Music | Fuxino