Rula Ke Gaya ishq Tera Guitar Notes/Tabs by Fuxino | Fx-Music



E|-----------------------------

B|-----------------------------

G|--5--5--3--------5--5--5--3--

D|-----------6--6--------------

A|-----------------------------

E|-----------------------------


E|-----------------------------

B|-----------------------------

G|--5--5--3--------5--5--5--3--

D|-----------6--6--------------

A|-----------------------------

E|-----------------------------



E|-----------------

B|-----------------

G|-----------------

D|--3--5--6--5--3--

A|-----------------

E|-----------------


E|--------------------------------------

B|-----------4--6--4--4--4--4--3--------

G|--3--3--5-----------------------5--3--

D|--------------------------------------

A|--------------------------------------

E|--------------------------------------


E|-----------------------------

B|-----------4--6--4--4--4--4--

G|--3--3--5--------------------

D|-----------------------------

A|-----------------------------

E|-----------------------------


E|--------------------------------------

B|-----------4--6--4--4--4--4--3--------

G|--3--3--5-----------------------5--3--

D|--------------------------------------

A|--------------------------------------

E|--------------------------------------



E|-----------------------------------

B|-----------------------------------

G|--5--5--5--5--5--5--3-----5--3--3--

D|--------------------------6-----------

A|-----------------------------------

E|-----------------------------------


Repeat Above Lines According To Song...

#Fuxino

Comments

  1. The 3,5,6,5,3 line sounds like mere mahboob song
    So please tell me how I sounds like you sir
    Song is mind blowing but i doubt in that line

    ReplyDelete
    Replies
    1. i also have doubt AT this line
      sorry for rip english

      Delete
  2. WHAT IS THE "BPM" OF THIS SONG??

    ReplyDelete

Post a comment

Popular posts from this blog

Single String Guitar Songs Mashup - 10 Arijit Singh Songs | Easy One String Bollywood Hindi Songs Guitar Tabs

Tum Hi Aana Guitar Tabs with intro, Chords and Backing Track by Fuxino | Jubin Nautiyal | Marjaavaan | FxMusic

Tujhe Kitna Chahne Lage Hum Guitar Tabs Lesson w/ Cover & Chords | KABIR SINGH | FUXiNO