Savage Love Guitar Tabs & Chords Fx-Music | BTS | LAXED - Siren Beat | Jason Derulo | Fuxino

SSAVAGE LOVE GUITAR TABS By FX-MUSIC



Chords-

Cm,G#,D#,A#



TABS

(Simplified version of tabs used in my video)


E|--8--------------------------

B|-----6--6--------6--8--6-----

G|-----------8--8-------------8--

D|-----------------------------

A|-----------------------------

E|-----------------------------


E|--------------------------

B|--9--6---6\8--6--8--6-----

G|---------------------------8--

D|--------------------------

A|--------------------------

E|--------------------------


E|--------------

B|--6--8--------

G|--------8--10-

D|--------------

A|--------------

E|--------------


E|-----------

B|-----------

G|--7--------

D|-----10-8--

A|-----------

E|-----------



E|-----------------------------------

B|--9\11-8---------8--11-11-11-8--11-11-11-

G|-------------8--------------------------

D|-----------------------------------

A|-----------------------------------

E|-----------------------------------



E|---------------------------------------8-----

B|--11-8-----8--11-11-11----8--11----11-

G|----------8--------------------------

D|-----------------------------------

A|-----------------------------------

E|-----------------------------------


E|-----------------------------------

B|--11-8-----8--11-11-11----8--11-11-11-

G|---------8--------------------------

D|-----------------------------------

A|-----------------------------------

E|-----------------------------------


E|--8-----------------------

B|-----8-----8--8--11-11-11-

G|--------8-----------------

D|--------------------------

A|--------------------------

E|--------------------------


E|-----11-10-

B|--11-------

G|-----------

D|-----------

A|-----------

E|-----------



E|--------------------------------------

B|--11-8---------------11-11-11-----8--11-11-11-

G|--------8--10---10----------------------

D|--------------------------------------

A|--------------------------------------

E|--------------------------------------


E|-------------------------------------------8--------

B|--11-8----------------11-11-11-8--11----11----

G|--------8--10----10-------------------------

D|-----------------------------------------

A|-----------------------------------------

E|-----------------------------------------


E|---------------------------------------------------------

B|--11-8-----------------11-11-11-------8--11-11-11-

G|--------8--10-----10------------------------------

D|---------------------------------------------------

A|----------------------------------------------------

E|-----------------------------------------------------



E|--8--------------------------

B|-----8-------------------11-11-11-11-

G|--------8--10----10-------------

D|-----------------------------

A|-----------------------------

E|-----------------------------


E|-----11-10-

B|--11-------

G|-----------

D|-----------

A|-----------

E|-----------



E|--------------------------------------

B|--11-8---------------11-11-11-----8--11-11-11-

G|--------8--10---10----------------------

D|--------------------------------------

A|--------------------------------------

E|--------------------------------------


E|-------------------------------------------8--------

B|--11-8----------------11-11-11-8--11----11----

G|--------8--10----10-------------------------

D|-----------------------------------------

A|-----------------------------------------

E|-----------------------------------------


E|---------------------------------------------------------

B|--11-8-----------------11-11-11-------8--11-11-11-

G|--------8--10-----10------------------------------

D|---------------------------------------------------

A|----------------------------------------------------

E|-----------------------------------------------------



E|--8--------------------------

B|-----8-------------------11-11-11-11-

G|--------8--10----10-------------

D|-----------------------------

A|-----------------------------

E|-----------------------------



Comments

  1. Really Awesome, like really really reallyyy Awesome bruh! 😍😍

    ReplyDelete
  2. Plzz teach us liggi and udd gaye by Ritviz

    ReplyDelete
  3. Why ant u posting any video of a new song there are so many new songs of ludo plzz teach us

    ReplyDelete
  4. Sir plz nayan ne bandhi by darshan raval... Single string kese bajaen.?

    ReplyDelete
  5. Sir plzz mene apki vids se boht seekha hh ..plzz sir nayan ne bandhi by darshan raval.. bta dein on single string

    ReplyDelete
  6. Sirr titliyan by hardy and nayan by dhwani plzz give the notes

    ReplyDelete

Post a Comment

Popular posts from this blog

Single String Guitar Songs Mashup - 10 Arijit Singh Songs | Easy One String Bollywood Hindi Songs Guitar Tabs

Tum Hi Aana Guitar Tabs with intro, Chords and Backing Track by Fuxino | Jubin Nautiyal | Marjaavaan | FxMusic

O Pata Nahi Ji Kaunsa Nasha Karta hai Guitar Tabs & Chords - Titliyan | Hardy Sandhu | Yaar Mera Titliyan Warga | Fx-Music | Fuxino