O Pata Nahi Ji Kaunsa Nasha Karta hai Guitar Tabs & Chords - Titliyan | Hardy Sandhu | Yaar Mera Titliyan Warga | Fx-Music | Fuxino

T TITLIYAN GUITAR TABS & CHORDS




CHORDS - (Only two chords used, c# used only once in my arrangement)


F#m, B & C#



Yaar mera Titliyan Varga ......

E|--------------------------------

B|--9--10-9--7--9--10-9--7--7--7--

G|--------------------------------

D|--------------------------------

A|--------------------------------

E|--------------------------------


E|--------------------------------------

B|--9--10-9--7--9--10-9--7--7--7--9-----

G|-----------------------------------------8--

D|--------------------------------------

A|--------------------------------------

E|--------------------------------------


E|--------------------------------

B|--9--10-9--7--9--10-9--7--7--7--

G|--------------------------------

D|--------------------------------

A|--------------------------------

E|--------------------------------


AAAAA....AAAAA....AAAA.....

E|--9--7--9--11-9--7--5--4--5--4--2--

B|-----------------------------------

G|-----------------------------------

D|-----------------------------------

A|-----------------------------------

E|-----------------------------------


E|--9--7--9--11-9--7--5--4--5--4--2--

B|-----------------------------------

G|-----------------------------------

D|-----------------------------------

A|-----------------------------------

E|-----------------------------------



E|--9--7--9--11-9--7--5--4--5--4--2--

B|-----------------------------------

G|-----------------------------------

D|-----------------------------------

A|-----------------------------------

E|-----------------------------------


E|--9--7--9--11-9--7--5--4--5--4--2--

B|-----------------------------------

G|-----------------------------------

D|-----------------------------------

A|-----------------------------------

E|-----------------------------------


OH PATA NAHI KONSA SA NASHA ...........

E|--------------------------------------------------

B|--7--7--7--7--7--7--6--7--7--7--7-6--7--6----------7--

G|--------------------------------------------------6--8-----

D|--------------------------------------------------

A|--------------------------------------------------

E|--------------------------------------------------



E|--------------------------

B|---7\9--9--9--7--7--9--9--

G|--------------------------

D|--------------------------

A|--------------------------

E|--------------------------


E|-----7-----------

B|--9-----10-9--7--

G|-----------------

D|-----------------

A|-----------------

E|-----------------


---------------



E|----------------------------------------------------------------

B|--7--7--7--7--7--7--6h7--7--7-7--6h/p7--------------7--

G|------------------------------------------------8--6--8-----

D|-----------------------------------------------------

A|-----------------------------------------------------

E|-----------------------------------------------------


E|----------------------------------------------

B|---7\9--9--9--9--9---7\9--9--9--9-----

G|-----------------------------------------------

D|-----------------------------------------------

A|-----------------------------------------------

E|-----------------------------------------------


E|------7---------------------------------------

B|---9-----10-9--7-----------------------------

G|-----------------------------------------------

D|-----------------------------------------------

A|-----------------------------------------------

E|-----------------------------------------------


E|------7---------------------------------------

B|---9-----10-9--7-----------------------------

G|-----------------------------------------------

D|-----------------------------------------------

A|-----------------------------------------------

E|-----------------------------------------------


Repeat according to song...

Thanks.

Comments

  1. Backing track????? Plsss upload the backing track,I am ready for buying it in cheap.

    ReplyDelete
  2. Sir iska please ek lesson wla video Bana Do sir please πŸ™πŸ™πŸ™πŸ™πŸŽˆ

    ReplyDelete
    Replies
    1. Yes sir pleeeeeeaaassseeeeeπŸ™πŸ»πŸ™πŸ»

      Delete
  3. Thanks sir for uploading
    I was waiting for this

    ReplyDelete
  4. Please upload with lession ..

    ReplyDelete
  5. This comment has been removed by a blog administrator.

    ReplyDelete
  6. Sir please iska video tutorial bana do please πŸ™πŸ™πŸ™πŸ™



    Love you sir ❤️

    ReplyDelete
    Replies
    1. Sir please please please bana do video tutorial we all will support you

      Delete
  7. Please tutorial video bana do na sirπŸ™πŸ™πŸ™

    ReplyDelete
  8. Sirr when is the new song coming
    N plzz also post the backing track of this song and other songs too

    ReplyDelete

Post a comment

Popular posts from this blog

Single String Guitar Songs Mashup - 10 Arijit Singh Songs | Easy One String Bollywood Hindi Songs Guitar Tabs

Tum Hi Aana Guitar Tabs with intro, Chords and Backing Track by Fuxino | Jubin Nautiyal | Marjaavaan | FxMusic

Tujhe Kitna Chahne Lage Hum Guitar Tabs Lesson w/ Cover & Chords | KABIR SINGH | FUXiNO