CRUSH Song Tabs | Fx-Music | Fuxino | Dance Music on Guitar 2021

FUXiNO - CRUSH - SONG TABS





WATCH THIS VIDEO TO LISTEN ORIGINAL TUNE THEN PLAY THESE NOTES ON YOUR GUITAR


E|--5-----3--5------3--5------3--5--5--5--5--5--5--5--5--5--5--

B|--------------------------------------------------

G|--------------------------------------------------

D|--------------------------------------------------

A|--------------------------------------------------

E|--------------------------------------------------


E|--5--3--------------------

B|--------5--3----3----5--5--5--

G|--------------------------

D|--------------------------

A|--------------------------

E|--------------------------


E|--3--5--3--------------------

B|-----------5--3------3--5--5--5--

G|-----------------------------

D|-----------------------------

A|-----------------------------

E|-----------------------------


E|--------3--5--3--------------------

B|----5-------------5--3-----3--5--5--5--

G|-----------------------------------

D|-----------------------------------

A|-----------------------------------

E|-----------------------------------


E|--3--5--3--------------------

B|-----------5--3-----3--5--5--5--

G|-----------------------------

D|-----------------------------

A|-----------------------------

E|-----------------------------



Comments

Popular posts from this blog

Single String Guitar Songs Mashup - 10 Arijit Singh Songs | Easy One String Bollywood Hindi Songs Guitar Tabs

Tum Hi Aana Guitar Tabs with intro, Chords and Backing Track by Fuxino | Jubin Nautiyal | Marjaavaan | FxMusic

Tujhe Kitna Chahne Lage Hum Guitar Tabs Lesson w/ Cover & Chords | KABIR SINGH | FUXiNO