Sapne - Chords and Tabs | Fuxino

SAPNE - Chords & Tabs 


CHORDS

Cm,G#,D#,A#


if you use capo on 3rd fret then chords are

Am,F,C,G with respect to capo


TABS

Main Melody

E|--------------

B|-----4--6--4--

G|--5-----------

D|--------------

A|--------------

E|--------------


E|-----4--4--4--3--------

B|--4--------------6--4--

G|-----------------------

D|-----------------------

A|-----------------------

E|-----------------------


E|--------------

B|-----4--6--4--

G|--3-----------

D|--------------

A|--------------

E|--------------


E|-----------------3-----------

B|--4--6--4--6-----6--4--3--

G|--------------------------

D|--------------------------

A|--------------------------

E|--------------------------



E|--------------

B|-----4--6--4--

G|--5-----------

D|--------------

A|--------------

E|--------------


E|-----4--4--4--3--------

B|--4--------------6--4--

G|-----------------------

D|-----------------------

A|-----------------------

E|-----------------------


E|--------------

B|-----4--6--4--

G|--3-----------

D|--------------

A|--------------

E|--------------


E|-----------------3-----------

B|--4--6--4--6-----6--4--3--

G|--------------------------

D|--------------------------

A|--------------------------

E|--------------------------


If you have any doubt leave your comment below.

Comments

Popular posts from this blog

Single String Guitar Songs Mashup - 10 Arijit Singh Songs | Easy One String Bollywood Hindi Songs Guitar Tabs

Tum Hi Aana Guitar Tabs with intro, Chords and Backing Track by Fuxino | Jubin Nautiyal | Marjaavaan | FxMusic

Tujhe Kitna Chahne Lage Hum Guitar Tabs Lesson w/ Cover & Chords | KABIR SINGH | FUXiNO