Thug Life Song Tune Guitar Tabs on One Single String | TaRa Ra Ra Ra | The Next Episode Song by Dr Dre & Snoop Dog | Fx-Music

Thug Life Song Tune (Tara Ra Ra Ra) on One Single String Guitar Tabs with Chords



Chords - Em and C 

Em & C used for intro part & only one chord (Em) used along with main lead part.


TABS

Main Lead

E|--0--7----7--5--7----5--3--5----5--3--0--3---
B|---------------------------------------------------
G|---------------------------------------------------
D|---------------------------------------------------
A|---------------------------------------------------
E|---------------------------------------------------


E|--0--7----7--5--7----5--3--5----5--3--0--3---
B|---------------------------------------------------
G|---------------------------------------------------
D|---------------------------------------------------
A|---------------------------------------------------
E|---------------------------------------------------


E|--0--7----7--5--7----5--3--5----5--3--0--3---
B|---------------------------------------------------
G|---------------------------------------------------
D|---------------------------------------------------
A|---------------------------------------------------
E|---------------------------------------------------



E|--0--7----7--5--7----5--3--5----5--3--0--3---
B|---------------------------------------------------
G|---------------------------------------------------
D|---------------------------------------------------
A|---------------------------------------------------
E|---------------------------------------------------

Tip - Try to play with palm muting with no sustain on every note, it will sound like original song

I AM PROVIDING EVERYTHING FOR FREE, PLEASE DONATE SOMETHING, IT WILL ENCOURAGE ME TO MAKE MORE CONTENT FOR YOU, ALL PAYMENT METHOD SUPPORTED



Tara Ra Ra Ra

E|--0--0---2--2---3(m)--
B|-----------------
G|-----------------
D|-----------------
A|-----------------
E|-----------------

E|--0--0---2--2---3(m)--
B|-----------------
G|-----------------
D|-----------------
A|-----------------
E|-----------------

(m) means, mute right after hitting that note.


comment below, if you have any doubt and for better understanding watch my video above.

Comments

Popular posts from this blog

Single String Guitar Songs Mashup - 10 Arijit Singh Songs | Easy One String Bollywood Hindi Songs Guitar Tabs

Tum Hi Aana Guitar Tabs with intro, Chords and Backing Track by Fuxino | Jubin Nautiyal | Marjaavaan | FxMusic

O Pata Nahi Ji Kaunsa Nasha Karta hai Guitar Tabs & Chords - Titliyan | Hardy Sandhu | Yaar Mera Titliyan Warga | Fx-Music | Fuxino