Free Fire Guitar Lesson on one single string (easy guitar songs tabs) by Fxmusic

 FREE FIRE SONG EASY GUITAR TABS SHEET by Fx-Music





CHORDS :- Em, G, C, Am



TABS
Tip - This is simply notes, you can add this melody more awesome by adding slides, bends or any suitable techniques.


E|-----------------------------
B|--7-0--7-8--5-7-----------
G|-----------------------------
D|-----------------------------
A|-----------------------------
E|-----------------------------



E|-----------------------------
B|--7-0--7-8--5-7-----------
G|-----------------------------
D|-----------------------------
A|-----------------------------
E|-----------------------------



E|-----------------------------
B|--7-0--7-8--5-7-----------
G|-----------------------------
D|-----------------------------
A|-----------------------------
E|-----------------------------



E|-----------------------------
B|--7-0--7-8--5-7-----------
G|-----------------------------
D|-----------------------------
A|-----------------------------
E|-----------------------------



This song is arranged specially for beginners, you can easily learn and play this song on your guitar. if you have any doubt leave your comment below.

Comments

  1. I want zsra zara songs bscking track how can i pay please provide ur paytm or google pay or psomething else

    ReplyDelete

Post a Comment

Popular posts from this blog

Single String Guitar Songs Mashup - 10 Arijit Singh Songs | Easy One String Bollywood Hindi Songs Guitar Tabs

Tum Hi Aana Guitar Tabs with intro, Chords and Backing Track by Fuxino | Jubin Nautiyal | Marjaavaan | FxMusic

O Pata Nahi Ji Kaunsa Nasha Karta hai Guitar Tabs & Chords - Titliyan | Hardy Sandhu | Yaar Mera Titliyan Warga | Fx-Music | Fuxino