Kaun Banega Crorepati - KBC Theme Music Guitar Tabs on Single String

Kaun Banega Crorepati Guitar Tabs on Single String


E|-----------

B|--8--6--6--

G|-----------

D|-----------

A|-----------

E|-----------


E|--------

B|--8--9--

G|--------

D|--------

A|--------

E|--------



E|-----------

B|--8--6--6--

G|-----------

D|-----------

A|-----------

E|-----------


E|--------

B|--8--9--

G|--------

D|--------

A|--------

E|--------


E|----------------------------------

B|--6--8--9-----------------------

G|----------------------------------

D|----------------------------------

A|----------------------------------

E|-----------------------------------


E|----------------------------------

B|--6--8--9---11--11\13--------

G|----------------------------------

D|----------------------------------

A|----------------------------------

E|-----------------------------------



Comments

Post a Comment

Popular posts from this blog

Tum Hi Aana Guitar Tabs with intro, Chords and Backing Track by Fuxino | Jubin Nautiyal | Marjaavaan | FxMusic

Single String Guitar Songs Mashup - 10 Arijit Singh Songs | Easy One String Bollywood Hindi Songs Guitar Tabs

O O JANE JANA GUITAR TABS SINGLE STRING AND MULTISTRING