Rata Lambiya Guitar Tabs & Chords - Easy Hindi Guita Songs For Beginners | Shershah Songs | Jubin Nautiyal


Watch This Video For Better Understanding (Refrence)


Chords :- A,E,D (Capo on 1st Fret)


Tabs

intro (oho oho oho oho)

E|--------------------------------------------------------------------------

B|--11-13-13-11---11-13-13-11-----11-13-13-11---11-13-13-11---

G|-------------------------------------------------------------------------

D|-------------------------------------------------------------------------

A|-------------------------------------------------------------------------

E|---------------------------------------------------------------------------


Teri Meri Gallan Ho Gayi Mashhoor

E|---------------------------------------------------------------

B|--13-15-15-13-13-15-15-13-13-15-15-13-15-13-11-

G|--------------------------------------------------------------

D|-----------------------------------------------

A|-----------------------------------------------

E|-----------------------------------------------


Kar Na Kabhi Tu Mujhe Nazron Se Door

E|-----------------------------------------------

B|--11-13-13-11-11-13-13-11-11-13-13-11-13-11----

G|----------------------------------------------------------------------12-

D|-----------------------------------------------

A|-----------------------------------------------

E|-----------------------------------------------


Kithe Chali Ae Kithe Chali Ae

E|-----------------------------------------------------------

B|-----11-11-13-13-15-15----11-11-13-13-15-15----------11-11-

G|--12----------------------------12--------------------------12-12-12-------

D|-----------------------------------------------------------

A|-----------------------------------------------------------

E|-----------------------------------------------------------


Jaanda Ae Dil Yeh Toh Jaandi Ae Tu

E|-----------------------------------------------

B|--13-15-15-13-13-15-15-13-13-15-15-13-15-13-11-

G|-----------------------------------------------

D|-----------------------------------------------

A|-----------------------------------------------

E|-----------------------------------------------


Tere Bin Main Na Rahun Mere Bina Tu

E|-----------------------------------------------

B|--11-13-13-15-11-13-13-15-11-13-13-11-13-11----

G|---------------------------------------------------------------------12-

D|-----------------------------------------------

A|-----------------------------------------------

E|-----------------------------------------------


Kithe Chali Ae Tu Kithe Chali Ae Tu
Kithe Chali Ae, Jaan Chali Ae

E|-----------------------------------------------------------

B|-----11-11-13-13-15-15----11-11-13-13-15-15----------11-11-

G|--12----------------------------12--------------------------12-12-12-------

D|-----------------------------------------------------------

A|-----------------------------------------------------------

E|-----------------------------------------------------------


Kaatun Kaise Raatan

E|--10-13-13-15-13-15-13-11-10-------

B|---------------------------------------------13-11-

G|-----------------------------------

D|-----------------------------------

A|-----------------------------------

E|-----------------------------------




Oh Saawre?



E|-----------10-------

B|--11----11----13----

G|-----12-------------

D|--------------------

A|--------------------

E|--------------------


Jiya Nahi Jaata...

E|--10-13-13-15-13-15-13-11-10--------------------

B|--------------------------------------------13-11-----------------

G|---------------------------------------------------------

D|--------------------------------------------------

A|--------------------------------------------------

E|--------------------------------------------------




Sunn Baawre?

E|--------------10---------------------------------

B|---11----11----13------------------------------

G|------12-----------------------------------------

D|--------------------------------------------------

A|--------------------------------------------------

E|--------------------------------------------------



Ke Raataan Lambiyan Lambiyan Re


E|-----------------------------------------

B|--11-10-----------------11----------11-------

G|--------12-10-12-12----12-12-12----12-12-

D|-----------------------------------------

A|-----------------------------------------

E|-----------------------------------------



Kate Tere Sangeyan Sangeyan Re

E|-----------------------------------------

B|--11-10----------------------------------

G|--------12----10-10-12-10-10-10-12-10-10-

D|-------------13----------------------------

A|-----------------------------------------

E|-----------------------------------------



Ke Raataan Lambiyan Lambiyan Re


E|-----------------------------------------

B|--11-10------------------11------------11-------

G|--------12-10-12-12----12-12-12----12-12-

D|-----------------------------------------

A|-----------------------------------------

E|-----------------------------------------



Kate Tere Sangeyan Sangeyan Re

E|-----------------------------------

B|--11-10----------------------------

G|--------12----10-10-12-14-12-10-10-

D|-------------13----------------------

A|-----------------------------------

E|-----------------------------------



Comments

Popular posts from this blog

Single String Guitar Songs Mashup - 10 Arijit Singh Songs | Easy One String Bollywood Hindi Songs Guitar Tabs

Tum Hi Aana Guitar Tabs with intro, Chords and Backing Track by Fuxino | Jubin Nautiyal | Marjaavaan | FxMusic

O Pata Nahi Ji Kaunsa Nasha Karta hai Guitar Tabs & Chords - Titliyan | Hardy Sandhu | Yaar Mera Titliyan Warga | Fx-Music | Fuxino