Squid Game Guitar Tabs Notes on Single String, Multi String & Chords by Fx-Music





Chords Used For These Lines :- Em


Tabs (Main Line)

E|--------------------------------11------------------------

B|--12-12-12-12-12-12----12-12-10----10-12-

G|-------------------------------------------------12-------

D|--------------------------------------------------

A|-------------------------------------------------

E|--------------------------------------------------


E|--------------------------------------------------

B|--12-12-12-12-12-12-12-10----10----------

G|----------------------------------------12----12-9--9--

D|--------------------------------------------------

A|--------------------------------------------------

E|--------------------------------------------------



E|--------------------------------11------------------------

B|--12-12-12-12-12-12----12-12-10----10-12-

G|--------------------------------------------------12-------

D|--------------------------------------------------

A|-------------------------------------------------

E|--------------------------------------------------


E|--------------------------------------------------

B|--12-12-12-12-12-12-12-10----10----------

G|----------------------------------------12----12-9--9--

D|--------------------------------------------------

A|--------------------------------------------------

E|--------------------------------------------------


SQUiD GAME Guitar Tabs SiNGLE STRING


E|--7--7--7----7--7--7----11-7---7--5---3--5--7--

B|-----------------------------------------

G|-----------------------------------------

D|-----------------------------------------

A|-----------------------------------------

E|-----------------------------------------


E|--7--7--7----7--7--7----7--5---3--5---3--0--0--

B|-----------------------------------------

G|-----------------------------------------

D|-----------------------------------------

A|-----------------------------------------

E|-----------------------------------------

BACKING TRACK (Click On This Button)



if you have any doubt please leave your comment below.

Comments

Popular posts from this blog

Single String Guitar Songs Mashup - 10 Arijit Singh Songs | Easy One String Bollywood Hindi Songs Guitar Tabs

Tum Hi Aana Guitar Tabs with intro, Chords and Backing Track by Fuxino | Jubin Nautiyal | Marjaavaan | FxMusic

O Pata Nahi Ji Kaunsa Nasha Karta hai Guitar Tabs & Chords - Titliyan | Hardy Sandhu | Yaar Mera Titliyan Warga | Fx-Music | Fuxino