Jugnu Guitar Tabs & Chords for Jugnu Challenge on Youtube Shorts #JugnuChallenge Fx-Music



Chords - A#m, G#, F#


Tabs (Main Lead)

E|----------------------------

B|--6--6--6-----------------

G|-----------8---6--8-------

D|-----------------------8---

A|---------------------------

E|----------------------------


E|--------------------------

B|--6--6--6---------------

G|------------8--6--8-----

D|----------------------8--

A|--------------------------

E|---------------------------



E|----------------------------

B|---------------------------

G|--6--6--6--6--6--6--8--

D|--------------------------

A|--------------------------

E|---------------------------



E|----------------------------

B|----------------------------

G|--6--6--6--6--6--6--8---

D|---------------------------

A|---------------------------

E|---------------------------


If you have any doubt leave your comment below.


Comments

Post a Comment

Popular posts from this blog

Tum Hi Aana Guitar Tabs with intro, Chords and Backing Track by Fuxino | Jubin Nautiyal | Marjaavaan | FxMusic

Single String Guitar Songs Mashup - 10 Arijit Singh Songs | Easy One String Bollywood Hindi Songs Guitar Tabs

O O JANE JANA GUITAR TABS SINGLE STRING AND MULTISTRING