Ranjha Guitar Tabs - O Rab Bhi Khel Hai Khele Guitar Lesson


WATCH THIS VIDEO FOR BETTER UNDERSTANDING


E|--6\9--9--9-----9--9--9--9-----9--9-----------------

B|----------------11-----------------11-------11-9--9--9--9--

G|-----------------------------------------------------

D|-----------------------------------------------------

A|-----------------------------------------------------

E|-----------------------------------------------------


E|-----9--9--9-----9--9--9--9-----9--9-----------------

B|--11----------11-------------11-------11-9--9--9--9--

G|-----------------------------------------------------

D|-----------------------------------------------------

A|-----------------------------------------------------

E|-----------------------------------------------------



E|-----------------------------11-13---------------

B|--11-14-14-14-14-14-------------------------

G|--------------------------------------------------

D|------------------------------------------------

A|----------------------------------------------------

E|------------------------------------------------------



E|-11-13-14-13-11-------11-13------------------

B|------------------------14-14-------------------------

G|----------------------------------------------------

D|------------------------------------------------------

A|------------------------------------------------------

E|-------------------------------------------------------



E|-11-13-14-13-11-------11-13------------------

B|------------------------14-14-------------------------

G|----------------------------------------------------

D|------------------------------------------------------

A|------------------------------------------------------

E|-------------------------------------------------------


E|--11-13-14-13-11-------------11-------------------------

B|---------------------------14-13-14----14-14-14-14-14----

G|--------------------------------------------------------------

D|-------------------------------------------------------------

A|---------------------------------------------------------------

E|-----------------------------------------------------------------



E|----------11-11-9--9--9--9--8--11-9--8-----------------------

B|--11-11---------------------------------------11-----------------------

G|--------------------------------------------------------------------

D|--------------------------------------------------------------------

A|--------------------------------------------------------------------

E|--------------------------------------------------------------------



E|----------11-11-9--9--9--9--8--11-9--8-----------------------

B|--11-11--------------------------------------11-----------------------

G|--------------------------------------------------------------------

D|--------------------------------------------------------------------

A|--------------------------------------------------------------------

E|--------------------------------------------------------------------



E|-----------11-11-9--9--9--9--8--11-9--8-----------------------

B|--11-11---------------------------------------11-----------------------

G|--------------------------------------------------------------------

D|--------------------------------------------------------------------

A|--------------------------------------------------------------------

E|--------------------------------------------------------------------




E|-----------11-11-9--9--9--9--9------------------------------------

B|--11-11-------------------------------------------------------------

G|--------------------------------------------------------------------

D|--------------------------------------------------------------------

A|--------------------------------------------------------------------

E|--------------------------------------------------------------------



Watch my video and repeat parts as played in my video.

Comments

Popular posts from this blog

Single String Guitar Songs Mashup - 10 Arijit Singh Songs | Easy One String Bollywood Hindi Songs Guitar Tabs

Tum Hi Aana Guitar Tabs with intro, Chords and Backing Track by Fuxino | Jubin Nautiyal | Marjaavaan | FxMusic

O Pata Nahi Ji Kaunsa Nasha Karta hai Guitar Tabs & Chords - Titliyan | Hardy Sandhu | Yaar Mera Titliyan Warga | Fx-Music | Fuxino