Mehram Guitar Tabs | Jersey Shahid Kapoor Movie Electric Guitar Lead Notes on Acoustic Guitar | Fxmusic



E|--------------------

B|-----10----9--------

G|--11----11----11-9--

D|--------------------

A|--------------------

E|--------------------


E|-----------------------

B|-----10----10\12-10-9--

G|--11----11-------------

D|-----------------------

A|-----------------------

E|-----------------------


E|--------------------------

B|-----10----9--------------

G|--11----11----11-9---9\11-

D|--------------------------

A|--------------------------

E|--------------------------



E|--------------------

B|-----10----9--------

G|--11----11----11-9--

D|--------------------

A|--------------------

E|--------------------


E|-----------------------

B|-----10----10\12-10-9--

G|--11----11-------------

D|-----------------------

A|-----------------------

E|-----------------------


E|--------------------------

B|-----10----9--------------

G|--11----11----11-9---9\11-

D|--------------------------

A|--------------------------

E|--------------------------


Comment below if you have any doubt.

Comments

Popular posts from this blog

Single String Guitar Songs Mashup - 10 Arijit Singh Songs | Easy One String Bollywood Hindi Songs Guitar Tabs

Tum Hi Aana Guitar Tabs with intro, Chords and Backing Track by Fuxino | Jubin Nautiyal | Marjaavaan | FxMusic

O Pata Nahi Ji Kaunsa Nasha Karta hai Guitar Tabs & Chords - Titliyan | Hardy Sandhu | Yaar Mera Titliyan Warga | Fx-Music | Fuxino